Cifras e Tablaturas
The Heavy

The Heavy

Same Ol

Cifras Cancelar Versão de Impressão
cifras

The Heavy - Same Ol

fixar na tela  
Exibindo: vídeo-aula ver clipes redimensionar

Tom:

  
Intro 

e|-----------------------------------------------------------------------------------------------| 
B|-----------------------------------------------------------------------------------------------| 
G|-----------------------------------------------------------------------------------------------| 
D|-10-10-x-x----------------5-5-x-x--------------8-8-x-x----------------3-3-x-x------------------| 
A|-10-10-x-x----------------5-5-x-x------------6-8-8-x-x----------------3-3-x-x------------6-----| 
E|-8--8--x-x-8/11-8-6-8-6-3-3-3-x-x-8/11-8-6-8---6-6-x-x-8/11-8-6-8-6-3-1-1-x-x-8/11-8-6-8-------| 

e|-----------------------------------------------------------------------------------------------| 
B|-----------------------------------------------------------------------------------------------| 
G|-----------------------------------------------------------------------------------------------| 
D|-10-10-x-x----------------5-5-x-x--------------8-8-x-x----------------3-3-x-x------------------| 
A|-10-10-x-x----------------5-5-x-x------------6-8-8-x-x----------------3-3-x-x-8/10-8-6-8-6-----| 
E|-8--8--x-x-8/11-8-6-8-6-3-3-3-x-x-8/11-8-6-8---6-6-x-x-8/11-8-6-8-6-3-1-1-x-x--------------8---| 

Verse 

e|----------------------------------------||--------------------------------------| 
B|----------------------------------------||--------------------------------------| 
G|------------------------------------x2--||--------------------------------------| 
A|-10-10\-----5-5\-----8-8\-----3-3\------||--------------------------------------| 
A|-10-10\-----5-5\-----8-8\-----3-3\------||-8/10-8-6-8-6-------------------------| 
E|-8--8-\-----3-3\-----6-6\-----1-1\------||--------------8-----------------------| 
                                      
Chorus 

e|-----------------------------------------------------------------------------------------------| 
B|-----------------------------------------------------------------------------------------------| 
G|-----------------------------------------------------------------------------------------------| 
D|-10-10-x-x----------------5-5-x-x--------------8-8-x-x----------------3-3-x-x------------------| 
A|-10-10-x-x----------------5-5-x-x------------6-8-8-x-x----------------3-3-x-x------------6-----| 
E|-8--8--x-x-8/11-8-6-8-6-3-3-3-x-x-8/11-8-6-8---6-6-x-x-8/11-8-6-8-6-3-1-1-x-x-8/11-8-6-8-------| 

e|-----------------------------------------------------------------------------------------------| 
B|-----------------------------------------------------------------------------------------------| 
G|-----------------------------------------------------------------------------------------------| 
D|-10-10-x-x----------------5-5-x-x--------------8-8-x-x----------------3-3-x-x------------------| 
A|-10-10-x-x----------------5-5-x-x------------6-8-8-x-x----------------3-3-x-x-8/10-8-6-8-6-----| 
E|-8--8--x-x-8/11-8-6-8-6-3-3-3-x-x-8/11-8-6-8---6-6-x-x-8/11-8-6-8-6-3-1-1-x-x--------------8---| 

Verse 

e|----------------------------------------| 
B|----------------------------------------| 
G|----------------------------------------| 
A|-10-10\-----5-5\-----8-8\-----3-3\------| 
A|-10-10\-----5-5\-----8-8\-----3-3\------| 
E|-8--8-\-----3-3\-----6-6\-----1-1\------| x2 

Bridge 1 

  PM-- 
e|----------------------------------------------------------------------------------------| 
B|----------------------------------------------------------------------------------------| 
G|----------------------------------------------------------------------------------------| 
D|-10-10-10-10-10-10-10-10-13-13-13-13-13-13-13-13-8-8-8-8-8-8-8-8-3-3-3-3-3-3-3-3--------| 
A|-10-10-10-10-10-10-10-10-13-13-13-13-13-13-13-13-8-8-8-8-8-8-8-8-3-3-3-3-3-3-3-3--------| 
E|-8--8--8--8--8--8--8--8--11-11-11-11-11-11-11-11-6-6-6-6-6-6-6-6-1-1-1-1-1-1-1-1--------| 

  PM-- 
e|---------------------------------------------------------------------------------------| 
B|---------------------------------------------------------------------------------------| 
G|---------------------------------------------------------------------------------------| 
D|-10-10-10-10-10-10-10-10-13-13-13-13-13-13-13-13-8-8-8-8-8-8-8-8-3-3-3-3---------------| 
A|-10-10-10-10-10-10-10-10-13-13-13-13-13-13-13-13-8-8-8-8-8-8-8-8-3-3-3-3-8/10-8-6-8-6--| 
E|-8--8--8--8--8--8--8--8--11-11-11-11-11-11-11-11-6-6-6-6-6-6-6-6-1-1-1-1--------------8| 

Chorus 

e|-----------------------------------------------------------------------------------------------| 
B|-----------------------------------------------------------------------------------------------| 
G|-----------------------------------------------------------------------------------------------| 
D|-10-10-x-x----------------5-5-x-x--------------8-8-x-x----------------3-3-x-x------------------| 
A|-10-10-x-x----------------5-5-x-x------------6-8-8-x-x----------------3-3-x-x------------6-----| 
E|-8--8--x-x-8/11-8-6-8-6-3-3-3-x-x-8/11-8-6-8---6-6-x-x-8/11-8-6-8-6-3-1-1-x-x-8/11-8-6-8-------| 

e|-----------------------------------------------------------------------------------------------| 
B|-----------------------------------------------------------------------------------------------| 
G|-----------------------------------------------------------------------------------------------| 
D|-10-10-x-x----------------5-5-x-x--------------8-8-x-x----------------3-3-x-x------------------| 
A|-10-10-x-x----------------5-5-x-x------------6-8-8-x-x----------------3-3-x-x-8/10-8-6-8-6-----| 
E|-8--8--x-x-8/11-8-6-8-6-3-3-3-x-x-8/11-8-6-8---6-6-x-x-8/11-8-6-8-6-3-1-1-x-x--------------8---| 

Bridge 2 

  PM-- 
e|-----------------------------------------------------------------------------------------| 
B|-----------------------------------------------------------------------------------------| 
G|-----------------------------------------------------------------------------------------| 
D|-10-10-10-10-10-10-10-10-10-10-10-10-10-10-10-10-10-10-10-10-10-10-10-10-8-8-8-8-3-3-3-3-| 
A|-10-10-10-10-10-10-10-10-10-10-10-10-10-10-10-10-10-10-10-10-10-10-10-10-8-8-8-8-3-3-3-3-| 
E|-8--8--8--8--8--8--8--8--8--8--8--8--8--8--8--8--8--8--8--8--8--8--8--8--6-6-6-6-1-1-1-1-| 

Chorus 

e|-----------------------------------------------------------------------------------------------| 
B|-----------------------------------------------------------------------------------------------| 
G|-----------------------------------------------------------------------------------------------| 
D|-10-10-x-x----------------5-5-x-x--------------8-8-x-x----------------3-3-x-x------------------| 
A|-10-10-x-x----------------5-5-x-x------------6-8-8-x-x----------------3-3-x-x------------6-----| 
E|-8--8--x-x-8/11-8-6-8-6-3-3-3-x-x-8/11-8-6-8---6-6-x-x-8/11-8-6-8-6-3-1-1-x-x-8/11-8-6-8-------| 

e|-----------------------------------------------------------------------------------------------| 
B|-----------------------------------------------------------------------------------------------| 
G|-----------------------------------------------------------------------------------------------| 
D|-10-10-x-x----------------5-5-x-x--------------8-8-x-x----------------3-3-x-x------------------| 
A|-10-10-x-x----------------5-5-x-x------------6-8-8-x-x----------------3-3-x-x-8/10-8-6-8-6-----| 
E|-8--8--x-x-8/11-8-6-8-6-3-3-3-x-x-8/11-8-6-8---6-6-x-x-8/11-8-6-8-6-3-1-1-x-x--------------8---| 

Outro 

e|--------------------------------------------------------------------------------------------------------| 
B|--------------------------------------------------------------------------------------------------------| 
G|--------------------------------------------------------------------------------------------------------| 
D|-10-10-x-x----------------10-10-x-x-------------------10-10-x-x----------------3-3-x-x------------------| 
A|-10-10-x-x----------------10-10-x-x-------------------10-10-x-x----------------3-3-x-x------------6-----| 
E|-8--8--x-x-8/11-8-6-8-6-3-8--8--x-x-8/11-8-6-8/11-8-6-8--8--x-x-8/11-8-6-8-6-3-1-1-x-x-8/11-8-6-8-------| 

e|---------------------------------------------------------------------------------------------------| 
B|---------------------------------------------------------------------------------------------------| 
G|---------------------------------------------------------------------------------------------------| 
D|-10-10-x-x----------------5-5-x-x--------------8-8-x-x----------------3-3-x-x----------------10~~--| 
A|-10-10-x-x----------------5-5-x-x------------6-8-8-x-x----------------3-3-x-x-8/10-8-6-8-6---10~~--| 
E|-8--8--x-x-8/11-8-6-8-6-3-3-3-x-x-8/11-8-6-8---6-6-x-x-8/11-8-6-8-6-3-1-1-x-x--------------8-8-~~--| 

************************************ 

| x   Dead note 
| /   Slide up 
| \   Slide down 
| PM  Palm mute 

************************************ 
  

top 5 | the heavy
top rock alternativo
Outras músicas do artista letras do(a) The Heavy
Top cifras »Top artistas »
Petaxxon Comunicação Online
Cifras.com.br - Melhor e mais completo site de cifras e tablaturas do Brasil
Mais de 1 milhão de acordes de músicas cadastradas desde 2003
As informações contidas no nosso site são colaborações de seus usuários e podem conter erros, sendo assim, não nos responsabilizamos sobre nenhuma destas.
close
menos
mais
close
Cor dos acordes:

Cor da letra:

 

save
close
close
 
redimensionar