Cifras e Tablaturas
The Interrupters

The Interrupters

White Noise

Cifras Cancelar Versão de Impressão
cifras

The Interrupters - White Noise

fixar na tela  
Exibindo: vídeo-aula ver clipes redimensionar

Tom:

  
Intro 
E|----------------|----------------|--5---5---5---5-|--2---2---2---2-| 
B|----------------|----------------|--5---5---5---5-|--3---3---3---3-| 
G|7-7-7-7-7-7-6-6-|4-4-4-4-4-4-----|--6---6---6---6-|--2---2---2---2-|  
D|----------------|------------7---|--7---7---7---7-|--4---4---4---4-| 
A|----------------|----------------|----------------|----------------| 
E|----------------|----------------|----------------|----------------| 

E|--5---5---5---5-|--2---2---2---2-|--5---5---5---5-|--2---2---2---2-| 
B|--5---5---5---5-|--3---3---3---3-|--5---5---5---5-|--3---3---3---3-| 
G|--6---6---6---6-|--2---2---2---2-|--6---6---6---6-|--2---2---2---2-|  
D|--7---7---7---7-|--4---4---4---4-|--7---7---7---7-|--4---4---4---4-| 
A|----------------|----------------|----------------|----------------| 
E|----------------|----------------|----------------|----------------| 

E|----------------|----------------|--5---5---5---5-|--2---2---2---2-| 
B|----------------|----------------|--5---5---5---5-|--3---3---3---3-| 
G|7-7-7-7-7-7-6-6-|4-4-4-4-4-4-----|--6---6---6---6-|--2---2---2---2-|  
D|----------------|------------7---|--7---7---7---7-|--4---4---4---4-| 
A|----------------|----------------|----------------|----------------| 
E|----------------|----------------|----------------|----------------| 

E|--5---5---5---5-|--2---2---2---2-|--5---5---5---5-|--2---2---2---2-| 
B|--5---5---5---5-|--3---3---3---3-|--5---5---5---5-|--3---3---3---3-| 
G|--6---6---6---6-|--2---2---2---2-|--6---6---6---6-|--2---2---2---2-|  
D|--7---7---7---7-|--4---4---4---4-|--7---7---7---7-|--4---4---4---4-| 
A|----------------|----------------|----------------|----------------| 
E|----------------|----------------|----------------|----------------| 

E|----------------|----------------| 
B|----------------|----------------| 
G|7-7-7-7-7-7-6-6-|4-4-4-4-4-4-----| 
D|----------------|------------7---| 
A|----------------|----------------| 
E|----------------|----------------| 

verse 1 
E|--5---5---5---5-|--2---2---2---2-|--5---5---5---5-|--2---2---2---2-| 
B|--5---5---5---5-|--3---3---3---3-|--5---5---5---5-|--3---3---3---3-| 
G|--6---6---6---6-|--2---2---2---2-|--6---6---6---6-|--2---2---2---2-|  
D|--7---7---7---7-|--4---4---4---4-|--7---7---7---7-|--4---4---4---4-| 
A|----------------|----------------|----------------|----------------| 
E|----------------|----------------|----------------|----------------| 

E|--5---5---5---5-|--2---2---2---2-|--2---2---2---2-|--4---4---4---4-| 
B|--5---5---5---5-|--3---3---3---3-|--3---3---3---3-|--5---5---5---5-| 
G|--6---6---6---6-|--2---2---2---2-|--4---4---4---4-|--4---4---4---4-|  
D|--7---7---7---7-|--4---4---4---4-|--4---4---4---4-|--6---6---6---6-| 
A|----------------|----------------|----------------|----------------| 
E|----------------|----------------|----------------|----------------| 

E|--5---5---5---5-|--2---2---2---2-|--5---5---5---5-|--2---2---2---2-| 
B|--5---5---5---5-|--3---3---3---3-|--5---5---5---5-|--3---3---3---3-| 
G|--6---6---6---6-|--2---2---2---2-|--6---6---6---6-|--2---2---2---2-|  
D|--7---7---7---7-|--4---4---4---4-|--7---7---7---7-|--4---4---4---4-| 
A|----------------|----------------|----------------|----------------| 
E|----------------|----------------|----------------|----------------| 

E|--5---5---5---5-|--2---2---2---2-|----------------|----------------| 
B|--5---5---5---5-|--3---3---3---3-|----------------|----------------| 
G|--6---6---6---6-|--2---2---2---2-|7-7-7-7-7-7-6-6-|4-4-4-4-4-4-----|  
D|--7---7---7---7-|--4---4---4---4-|----------------|------------7---| 
A|----------------|----------------|----------------|----------------| 
E|----------------|----------------|----------------|----------------| 

Chorus 1 
E|--5---5---5---5-|--2---2---2---2-|--5---5---5---5-|--2---2---2---2-| 
B|--5---5---5---5-|--3---3---3---3-|--5---5---5---5-|--3---3---3---3-| 
G|--6---6---6---6-|--2---2---2---2-|--6---6---6---6-|--2---2---2---2-|  
D|--7---7---7---7-|--4---4---4---4-|--7---7---7---7-|--4---4---4---4-| 
A|----------------|----------------|----------------|----------------| 
E|----------------|----------------|----------------|----------------| 

E|--5---5---5---5-|--2---2---2---2-|----------------|----------------| 
B|--5---5---5---5-|--3---3---3---3-|----------------|----------------| 
G|--6---6---6---6-|--2---2---2---2-|7-7-7-7-7-7-6-6-|4-4-4-4-4-4-----|  
D|--7---7---7---7-|--4---4---4---4-|----------------|------------7---| 
A|----------------|----------------|----------------|----------------| 
E|----------------|----------------|----------------|----------------| 

E|----------------|----------------|----------------|----------------| 
B|----------------|----------------|----------------|----------------| 
G|----------------|----------------|----------------|----------------|  
D|7-7-------------|----4-4-5-5-7-7-|7-7-------------|----0-0-4-4-5-5-| 
A|----0-0-4-4-7-7-|5-5-------------|----0-0-4-4-7-7-|5-5-------------| 
E|----------------|----------------|----------------|----------------| 

E|----------------|----------------|----------------|----------------| 
B|----------------|----------------|----------------|----------------| 
G|----------------|----------------|----------------|----------------|  
D|7-7-------------|----4-4-5-5-7-7-|7-7-7-7-7-7-6-6-|4-4-4-4-4-4-----| 
A|----0-0-4-4-7-7-|5-5-------------|----------------|------------7---| 
E|----------------|----------------|----------------|----------------| 

verse 2 
E|--5---5---5---5-|--2---2---2---2-|--5---5---5---5-|--2---2---2---2-| 
B|--5---5---5---5-|--3---3---3---3-|--5---5---5---5-|--3---3---3---3-| 
G|--6---6---6---6-|--2---2---2---2-|--6---6---6---6-|--2---2---2---2-|  
D|--7---7---7---7-|--4---4---4---4-|--7---7---7---7-|--4---4---4---4-| 
A|----------------|----------------|----------------|----------------| 
E|----------------|----------------|----------------|----------------| 

E|--5---5---5---5-|--2---2---2---2-|--2---2---2---2-|--4---4---4---4-| 
B|--5---5---5---5-|--3---3---3---3-|--3---3---3---3-|--5---5---5---5-| 
G|--6---6---6---6-|--2---2---2---2-|--4---4---4---4-|--4---4---4---4-|  
D|--7---7---7---7-|--4---4---4---4-|--4---4---4---4-|--6---6---6---6-| 
A|----------------|----------------|----------------|----------------| 
E|----------------|----------------|----------------|----------------| 

E|--5---5---5---5-|--2---2---2---2-|--5---5---5---5-|--2---2---2---2-| 
B|--5---5---5---5-|--3---3---3---3-|--5---5---5---5-|--3---3---3---3-| 
G|--6---6---6---6-|--2---2---2---2-|--6---6---6---6-|--2---2---2---2-|  
D|--7---7---7---7-|--4---4---4---4-|--7---7---7---7-|--4---4---4---4-| 
A|----------------|----------------|----------------|----------------| 
E|----------------|----------------|----------------|----------------| 

E|--5---5---5---5-|--2---2---2---2-|----------------|----------------| 
B|--5---5---5---5-|--3---3---3---3-|----------------|----------------| 
G|--6---6---6---6-|--2---2---2---2-|7-7-7-7-7-7-6-6-|4-4-4-4-4-4-----|  
D|--7---7---7---7-|--4---4---4---4-|----------------|------------7---| 
A|----------------|----------------|----------------|----------------| 
E|----------------|----------------|----------------|----------------| 

Chorus 2 
E|--5---5---5---5-|--2---2---2---2-|--5---5---5---5-|--2---2---2---2-| 
B|--5---5---5---5-|--3---3---3---3-|--5---5---5---5-|--3---3---3---3-| 
G|--6---6---6---6-|--2---2---2---2-|--6---6---6---6-|--2---2---2---2-|  
D|--7---7---7---7-|--4---4---4---4-|--7---7---7---7-|--4---4---4---4-| 
A|----------------|----------------|----------------|----------------| 
E|----------------|----------------|----------------|----------------| 

E|--5---5---5---5-|--2---2---2---2-|----------------|----------------| 
B|--5---5---5---5-|--3---3---3---3-|----------------|----------------| 
G|--6---6---6---6-|--2---2---2---2-|7-7-7-7-7-7-6-6-|4-4-4-4-4-4-----|  
D|--7---7---7---7-|--4---4---4---4-|----------------|------------7---| 
A|----------------|----------------|----------------|----------------| 
E|----------------|----------------|----------------|----------------| 
  
Solo 
E|-------------------|---------------|--------------------|----------------| 
B|---------------14--|---------------|---------12--12---14|12--------------| 
G|------13h14--14----|14-------------|-----9--------------|----------------|  
D|11h14--------------|---------------|9h11----------------|----------------| 
A|-------------------|---------------|--------------------|----------------| 
E|-------------------|---------------|--------------------|----------------| 

E|-----------------------|-------------|----------------------|-----16\----| 
B|---------------14------|-------------|---------12--12---14--|-16---------| 
G|------13h14--14----14--|-------------|-----9----------------|------------|  
D|11h14------------------|-------------|9h11------------------|------------| 
A|-----------------------|-------------|----------------------|------------| 
E|-----------------------|-------------|----------------------|------------| 
  
verse 3 
E|--5---5---5---5-|--2---2---2---2-|--5---5---5---5-|--2---2---2---2-| 
B|--5---5---5---5-|--3---3---3---3-|--5---5---5---5-|--3---3---3---3-| 
G|--6---6---6---6-|--2---2---2---2-|--6---6---6---6-|--2---2---2---2-|  
D|--7---7---7---7-|--4---4---4---4-|--7---7---7---7-|--4---4---4---4-| 
A|----------------|----------------|----------------|----------------| 
E|----------------|----------------|----------------|----------------| 

E|--5---5---5---5-|--2---2---2---2-|----------------|----------------| 
B|--5---5---5---5-|--3---3---3---3-|----------------|----------------| 
G|--6---6---6---6-|--2---2---2---2-|7-7-7-7-7-7-6-6-|4-4-4-4-4-4-----|  
D|--7---7---7---7-|--4---4---4---4-|----------------|------------7---| 
A|----------------|----------------|----------------|----------------| 
E|----------------|----------------|----------------|----------------| 

Outro 
E|----------------|----------------|----------------|----------------| 
B|----------------|----------------|----------------|----------------| 
G|----------------|----------------|----------------|----------------|  
D|7-7-------------|----4-4-5-5-7-7-|7-7-------------|----0-0-4-4-5-5-| 
A|----0-0-4-4-7-7-|5-5-------------|----0-0-4-4-7-7-|5-5-------------| 
E|----------------|----------------|----------------|----------------| 

E|----------------|----------------|----------------|----------------| 
B|----------------|----------------|----------------|----------------| 
G|----------------|----------------|----------------|----------------|  
D|7-7-------------|----4-4-5-5-7-7-|7-7-7-7-7-7-6-6-|4-4-4-4-4-4-----| 
A|----0-0-4-4-7-7-|5-5-------------|----------------|------------7---| 
E|----------------|----------------|----------------|----------------| 

E|--5---5---5---5-|--2---2---2---2-|--5---5---5---5-|--2---2---2---2-| 
B|--5---5---5---5-|--3---3---3---3-|--5---5---5---5-|--3---3---3---3-| 
G|--6---6---6---6-|--2---2---2---2-|--6---6---6---6-|--2---2---2---2-|  
D|--7---7---7---7-|--4---4---4---4-|--7---7---7---7-|--4---4---4---4-| 
A|----------------|----------------|----------------|----------------| 
E|----------------|----------------|----------------|----------------| 

E|--5---5---5---5-|--2---2---2---2-|----------------|----------------| 
B|--5---5---5---5-|--3---3---3---3-|----------------|----------------| 
G|--6---6---6---6-|--2---2---2---2-|7-7-7-7-7-7-6-6-|4-4-4-4-4-4-----|  
D|--7---7---7---7-|--4---4---4---4-|----------------|------------7---| 
A|----------------|----------------|----------------|----------------| 
E|----------------|----------------|----------------|----------------| 



*********************************** 

| h   Hammer-on 
| \   Slide down 

************************************ 
  

top 5 | the interrupters
top rock'n roll
Outras músicas do artista letras do(a) The Interrupters
Top cifras »Top artistas »
Petaxxon Comunicação Online
Cifras.com.br - Melhor e mais completo site de cifras e tablaturas do Brasil
Mais de 1 milhão de acordes de músicas cadastradas desde 2003
As informações contidas no nosso site são colaborações de seus usuários e podem conter erros, sendo assim, não nos responsabilizamos sobre nenhuma destas.
close
menos
mais
close
Cor dos acordes:

Cor da letra:

 

save
close
close
 
redimensionar