Cifras e Tablaturas
The Lillingtons

The Lillingtons

Insect Nightmares

Cifras Cancelar Versão de Impressão
cifras

The Lillingtons - Insect Nightmares

fixar na tela  
Exibindo: vídeo-aula ver clipes redimensionar

Tom:

  
Intro 

Guitar 1 

e|-------------------------------------------------------------5---| 
B|-7-----------7-----------7-------8-----------7-----------5-------| 
G|-----7---4-------7---4-------7-------7---4-------4---6-----------|  x4 
D|-----------------------------------------------------------------| 
A|-----------------------------------------------------------------| 
E|-----------------------------------------------------------------| 

Guitar 2 

e|-----------------------------------------------------------------| 
B|-----------------------------------------------------------------| 
G|-4-4-4-4-4-4-4-4-4-4-4-4-4-4-4-4-4-4-4-4-4-4-4-4-7-7-7-7---------| 
D|-4-4-4-4-4-4-4-4-4-4-4-4-4-4-4-4-4-4-4-4-4-4-4-4-7-7-7-7-7-7-7-7-|  x4 
A|-2-2-2-2-2-2-2-2-2-2-2-2-2-2-2-2-2-2-2-2-2-2-2-2-5-5-5-5-7-7-7-7-| 
E|---------------------------------------------------------5-5-5-5-| 


Bridge 

Guitar 1 

e|---------------------------------------------------------------| 
B|-----------------------15-14-----12~---------12--10~-----8--7\-| 
G|-----------------------------14--------------------------------| 
D|---------------------------------------------------------------|    x2 
A|---------------------------------------------------------------| 
E|---------------------------------------------------------------| 

Guitar 2 

e|---------------------------------------------------------------| 
B|---------------------------------------------------------------| 
G|-4-4-4-4-4-4-7---4-4-4-4-4-4-7---------------7---------------7-|    x2 
D|-4-4-4-4-4-4-7---4-4-4-4-4-4-7---5-5-5-5-5-5-7---7-7-7-7-7-7-7-| 
A|-2-2-2-2-2-2-5---2-2-2-2-2-2-5---5-5-5-5-5-5-5---7-7-7-7-7-7-5-| 
E|---------------------------------3-3-3-3-3-3-----5-5-5-5-5-5---| 
PM. . . . . .     . . . . . .     


verse 1 

Guitar 1&2 

e|---------------------------------------------------------------| 
B|---------------------------------------------------------------| 
G|-4-4-4-4-4-4-4-4-4-4-4-4-4-4-4-4-------------7---------------7-|    x4 
D|-4-4-4-4-4-4-4-4-4-4-4-4-4-4-4-4-5-5-5-5-5-5-7---7-7-7-7-7-7-7-| 
A|-2-2-2-2-2-2-2-2-2-2-2-2-2-2-2-2-5-5-5-5-5-5-5---7-7-7-7-7-7-5-| 
E|---------------------------------3-3-3-3-3-3-----5-5-5-5-5-5---| 


Interlude 

Guitar 1 

e|-7-7-7-7-7-7-7-7-7-7-7-7-7-7-7-7-7-7-7-7-7-7-7-7-10-10-10-10-10-10-10-10-| 
B|-7-7-7-7-7-7-7-7-7-7-7-7-7-7-7-7-7-7-7-7-7-7-7-7-10-10-10-10-10-10-10-10-| 
G|-------------------------------------------------------------------------|  
D|-------------------------------------------------------------------------| x2 
A|-------------------------------------------------------------------------| 
E|-------------------------------------------------------------------------| 
PM. .     . .     . .     . .     . .     . . 

Guitar 2 

e|-----------------------------------------------------------------| 
B|-----------------------------------------------------------------| 
G|-4-4-4-4-4-4-4-4-4-4-4-4-4-4-4-4-4-4-4-4-4-4-4-4-7-7-7-7---------| 
D|-4-4-4-4-4-4-4-4-4-4-4-4-4-4-4-4-4-4-4-4-4-4-4-4-7-7-7-7-7-7-7-7-|  x2 
A|-2-2-2-2-2-2-2-2-2-2-2-2-2-2-2-2-2-2-2-2-2-2-2-2-5-5-5-5-7-7-7-7-| 
E|---------------------------------------------------------5-5-5-5-| 

Guitar 1 

e|-------------------------------------------------------------------------------------------------| 
B|--------------------------------------------------------------------------10--8--7---------------| 
G|-------------------------------------------------------------7----------------------9--7\--------| 
D|--------------------------------------------------9----------------------------------------------| 
A|-------------------------------------------------------------------------------------------------| 
E|-------------------------------------------------------------------------------------------------| 

Guitar 2 

e|-------------------------------------------------------------------------------------------------| 
B|-------------------------------------------------------------------------------------------------| 
G|-12-12-12-12-12-12-12-12-12-12-12-12-12-12-12-12-12-12-12-12-12-12-12-12-12-12-12-12-12-12-12-12-| 
D|-12-12-12-12-12-12-12-12-12-12-12-12-12-12-12-12-12-12-12-12-12-12-12-12-12-12-12-12-12-12-12-12-| 
A|-10-10-10-10-10-10-10-10-10-10-10-10-10-10-10-10-10-10-10-10-10-10-10-10-10-10-10-10-10-10-10-10-| 
E|-------------------------------------------------------------------------------------------------| 


verse 2 

Guitar 1&2 

e|---------------------------------------------------------------| 
B|---------------------------------------------------------------| 
G|-4-4-4-4-4-4-4-4-4-4-4-4-4-4-4-4-------------7---------------7-|    x4 
D|-4-4-4-4-4-4-4-4-4-4-4-4-4-4-4-4-5-5-5-5-5-5-7---7-7-7-7-7-7-7-| 
A|-2-2-2-2-2-2-2-2-2-2-2-2-2-2-2-2-5-5-5-5-5-5-5---7-7-7-7-7-7-5-| 
E|---------------------------------3-3-3-3-3-3-----5-5-5-5-5-5---| 


Bridge 

Guitar 1 

e|---------------------------------------------------------------| 
B|-----------------------15-14-----12~---------12--10------8--7\-| 
G|-----------------------------14--------------------------------| 
D|---------------------------------------------------------------|    x2 
A|---------------------------------------------------------------| 
E|---------------------------------------------------------------| 

Guitar 2 

e|---------------------------------------------------------------| 
B|---------------------------------------------------------------| 
G|-4-4-4-4-4-4-7---4-4-4-4-4-4-7---------------7---------------7-|    x2 
D|-4-4-4-4-4-4-7---4-4-4-4-4-4-7---5-5-5-5-5-5-7---7-7-7-7-7-7-7-| 
A|-2-2-2-2-2-2-5---2-2-2-2-2-2-5---5-5-5-5-5-5-5---7-7-7-7-7-7-5-| 
E|---------------------------------3-3-3-3-3-3-----5-5-5-5-5-5---| 
PM. . . . . .     . . . . . .     


Chorus 

Guitar 1&2 

e|---------------------------------| 
B|---------------------------------| 
G|-4-4-4-----------7-7-7-----------| 
D|-4-4-4-5---5-5-5-7-7-7-7---7-7-7-| x4 
A|-2-2-2-5---5-5-5-5-5-5-7---7-7-7-| 
E|-------3---3-3-3-------5---5-5-5-| 


Outro 

Guitar 1 

e|---------------------------------| 
B|-------------10--8---7-----------| 
G|-----6-7-9---------------9---7---| 
D|-9-------------------------------| x4 
A|---------------------------------| 
E|---------------------------------| 

Guitar 2 

e|---------------------------------| 
B|---------------------------------| 
G|-4-4-4-----------7-7-7-----------| 
D|-4-4-4-5---5-5-5-7-7-7-7---7-7-7-| x4 
A|-2-2-2-5---5-5-5-5-5-5-7---7-7-7-| 
E|-------3---3-3-3-------5---5-5-5-| 

End on: 

e|----| 
B|----| 
G|-4\-| 
D|-4\-| 
A|-2\-| 
E|----| 

Also, during the Chorus and Outro, this note is played repeatedly 

e|-19-| 
B|----| 
G|----| 
D|----| 
A|----| 
E|----| 


************************************ 

| \   Slide down 
| ~   Vibrato 
| PM  Palm mute 

************************************ 
  

top 5 | the lillingtons
top rock'n roll
Outras músicas do artista letras do(a) The Lillingtons
Top cifras »Top artistas »
Petaxxon Comunicação Online
Cifras.com.br - Melhor e mais completo site de cifras e tablaturas do Brasil
Mais de 1 milhão de acordes de músicas cadastradas desde 2003
As informações contidas no nosso site são colaborações de seus usuários e podem conter erros, sendo assim, não nos responsabilizamos sobre nenhuma destas.
close
menos
mais
close
Cor dos acordes:

Cor da letra:

 

save
close
close
 
redimensionar