Cifras e Tablaturas
The Lillingtons

The Lillingtons

Rubber Room

Cifras Cancelar Versão de Impressão
cifras

The Lillingtons - Rubber Room

fixar na tela  
Exibindo: vídeo-aula ver clipes redimensionar

Tom:

  
Intro 
(Guitar 1) 
e|-----------------|-----------------| 
B|-----------------|-----------------| 
G|-4/5-5-5-5-5-5-5-|-5-5-5-5-5-5-5-5-| 
D|-4/5-5-5-5-5-5-5-|-5-5-5-5-5-5-5-5-| 
A|-2/3-3-3-3-3-3-3-|-3-3-3-3-3-3-3-3-| 
E|-----------------|-----------------| (x4) 

verse 1 
(Guitar 1) 
e|-----------------|-----------------|-----------------|-----------------| 
B|-----------------|-----------------|-----------------|-----------------| 
G|-5-5-5-5-5-5-5-5-|-5-5-5-5-5-5-5-5-|-----------------|-5-5-5-5-5-5-5-5-| 
D|-5-5-5-5-5-5-5-5-|-5-5-5-5-5-5-5-5-|-3-3-3-3-5-5-5-5-|-5-5-5-5-5-5-5-5-| 
A|-3-3-3-3-3-3-3-3-|-3-3-3-3-3-3-3-3-|-3-3-3-3-5-5-5-5-|-3-3-3-3-3-3-3-3-| 
E|-----------------|-----------------|-1-1-1-1-3-3-3-3-|-----------------| (x4) 

Chorus 1 
(Guitar 1) 
e|-----------------|-----------------|-----------------|-----------------| 
B|-----------------|-----------------|-----------------|-----------------| 
G|-----------------|-----------------|-5-5-5-5-5-5-5-5-|-----------------| 
D|-7-7-7-7-7-7-7-7-|-5-5-5-5-5-5-5-5-|-5-5-5-5-5-5-5-5-|-3-3-3-3-3-3-3-3-| 
A|-7-7-7-7-7-7-7-7-|-5-5-5-5-5-5-5-5-|-3-3-3-3-3-3-3-3-|-3-3-3-3-3-3-3-3-| 
E|-5-5-5-5-5-5-5-5-|-3-3-3-3-3-3-3-3-|-----------------|-1-1-1-1-1-1-1-1-| (x3) 

e|-----------------|-----------------| 
B|-----------------|-----------------| 
G|-----------------|-----------------| 
D|-7-7-7-7-7-7-7-7-|-5-5-5-5-5-5-5-5-| 
A|-7-7-7-7-7-7-7-7-|-5-5-5-5-5-5-5-5-| 
E|-5-5-5-5-5-5-5-5-|-3-3-3-3-3-3-3-3-| 

(Guitar 2) 
e|-----------|-----------|---------|----| 
B|-----------|-----------|---------|----| 
G|-10-9----9-|-10-9----9-|-12-10-9-|----| 
D|------10---|------10---|---------|-10-| 
A|-----------|-----------|---------|----| 
E|-----------|-----------|---------|----| (x3) 

e|----|------| 
B|----|------| 
G|----|------| 
D|-10-|-9-10-| 
A|----|------| 
E|----|------| 

Post-Chorus 
(Guitar 1) 
e|-----------------|-----------------| 
B|-----------------|-----------------| 
G|-4/5-5-5-5-5-5-5-|-5-5-5-5-5-5-5-5-| 
D|-4/5-5-5-5-5-5-5-|-5-5-5-5-5-5-5-5-| 
A|-2/3-3-3-3-3-3-3-|-3-3-3-3-3-3-3-3-| 
E|-----------------|-----------------| (x4) 

verse 1 
(Guitar 1) 
e|-----------------|-----------------|-----------------|-----------------| 
B|-----------------|-----------------|-----------------|-----------------| 
G|-5-5-5-5-5-5-5-5-|-5-5-5-5-5-5-5-5-|-----------------|-5-5-5-5-5-5-5-5-| 
D|-5-5-5-5-5-5-5-5-|-5-5-5-5-5-5-5-5-|-3-3-3-3-5-5-5-5-|-5-5-5-5-5-5-5-5-| 
A|-3-3-3-3-3-3-3-3-|-3-3-3-3-3-3-3-3-|-3-3-3-3-5-5-5-5-|-3-3-3-3-3-3-3-3-| 
E|-----------------|-----------------|-1-1-1-1-3-3-3-3-|-----------------| (x4) 

Chorus 2 
(Guitar 1) 
e|-----------------|-----------------|-----------------|-----------------| 
B|-----------------|-----------------|-----------------|-----------------| 
G|-----------------|-----------------|-5-5-5-5-5-5-5-5-|-----------------| 
D|-7-7-7-7-7-7-7-7-|-5-5-5-5-5-5-5-5-|-5-5-5-5-5-5-5-5-|-3-3-3-3-3-3-3-3-| 
A|-7-7-7-7-7-7-7-7-|-5-5-5-5-5-5-5-5-|-3-3-3-3-3-3-3-3-|-3-3-3-3-3-3-3-3-| 
E|-5-5-5-5-5-5-5-5-|-3-3-3-3-3-3-3-3-|-----------------|-1-1-1-1-1-1-1-1-| (x3) 

e|-----------------|-----------------| 
B|-----------------|-----------------| 
G|-----------------|-----------------| 
D|-7-7-7-7-7-7-7-7-|-5-5-5-5-5-5-5-5-| 
A|-7-7-7-7-7-7-7-7-|-5-5-5-5-5-5-5-5-| 
E|-5-5-5-5-5-5-5-5-|-3-3-3-3-3-3-3-3-| 

(Guitar 2) 
e|-----------|-----------|---------|----| 
B|-----------|-----------|---------|----| 
G|-10-9----9-|-10-9----9-|-12-10-9-|----| 
D|------10---|------10---|---------|-10-| 
A|-----------|-----------|---------|----| 
E|-----------|-----------|---------|----| (x3) 

e|----|------| 
B|----|------| 
G|----|------| 
D|-10-|-9-10-| 
A|----|------| 
E|----|------| 

Outro 
(Guitar 1) 
e|-----------------|-----------------|-----------------|-----------------| 
B|-----------------|-----------------|-----------------|-----------------| 
G|-5-5-5-5-5-5-5-5-|-5-5-5-5-5-5-5-5-|-----------------|-----------------| 
D|-5-5-5-5-5-5-5-5-|-5-5-5-5-5-5-5-5-|-3-3-3-3-3-3-3-3-|-5-5-5-5-5-5-5-5-| 
A|-3-3-3-3-3-3-3-3-|-3-3-3-3-3-3-3-3-|-3-3-3-3-3-3-3-3-|-5-5-5-5-5-5-5-5-| 
E|-----------------|-----------------|-1-1-1-1-1-1-1-1-|-3-3-3-3-3-3-3-3-| (x6) 

(Guitar 2) 
e|---------|---------|---------|---------| 
B|---------|---------|---------|---------| 
G|-10-9----|----9-10-|-10-9----|---------| 
D|------10-|-12------|------10-|-12-10-9-| 
A|---------|---------|---------|---------| 
E|---------|---------|---------|---------| (x6) 


*********************************** 

| /   Slide Up 

*********************************** 
  

top 5 | the lillingtons
top rock'n roll
Outras músicas do artista letras do(a) The Lillingtons
Top cifras »Top artistas »
Petaxxon Comunicação Online
Cifras.com.br - Melhor e mais completo site de cifras e tablaturas do Brasil
Mais de 1 milhão de acordes de músicas cadastradas desde 2003
As informações contidas no nosso site são colaborações de seus usuários e podem conter erros, sendo assim, não nos responsabilizamos sobre nenhuma destas.
close
menos
mais
close
Cor dos acordes:

Cor da letra:

 

save
close
close
 
redimensionar