Cifras e Tablaturas
The Lillingtons

The Lillingtons

Until The Sun Shines

Cifras Cancelar Versão de Impressão
cifras

The Lillingtons - Until The Sun Shines

fixar na tela  
Exibindo: vídeo-aula ver clipes redimensionar

Tom:

  
Intro  
(Guitar 1) 
e|-----------------|-----------------|-----------------|-----------------| 
B|-----------------|-----------------|-----------------|-----------------| 
G|-5-5-5-5-5-5-5-5-|-----------------|-----------------|-----------------| 
D|-5-5-5-5-5-5-5-5-|-5-5-5-5-5-5-5-5-|-7-7-7-7-7-7-7-7-|-3-3-3-3-3-3-3-3-| 
A|-3-3-3-3-3-3-3-3-|-5-5-5-5-5-5-5-5-|-7-7-7-7-7-7-7-7-|-3-3-3-3-3-3-3-3-| 
E|-----------------|-3-3-3-3-3-3-3-3-|-5-5-5-5-5-5-5-5-|-1-1-1-1-1-1-1-1-| (x4) 

(Guitar 2) 
e|-8-----|---5-7-|-8-----|--------| 
B|---5-5-|-8-----|---5-5-|-8-6-5--| 
G|-------|-------|-------|--------| 
D|-------|-------|-------|--------| 
A|-------|-------|-------|--------| 
E|-------|-------|-------|--------| (x4) 

verse 1 
(Guitar 1) 
e|-----------------|-----------------|-----------------|-----------------| 
B|-----------------|-----------------|-----------------|-----------------| 
G|-5-5-5-5-5-5-5-5-|-----------------|-----------------|-----------------| 
D|-5-5-5-5-5-5-5-5-|-5-5-5-5-5-5-5-5-|-7-7-7-7-7-7-7-7-|-3-3-3-3-3-3-3-3-| 
A|-3-3-3-3-3-3-3-3-|-5-5-5-5-5-5-5-5-|-7-7-7-7-7-7-7-7-|-3-3-3-3-3-3-3-3-| 
E|-----------------|-3-3-3-3-3-3-3-3-|-5-5-5-5-5-5-5-5-|-1-1-1-1-1-1-1-1-| (x3) 
   . . . . . . . .   . . . . . . . .   . . . . . . . .   . . . . . . . . 

e|-----------------|-----------------|-----------------|-----------------| 
B|-----------------|-----------------|-----------------|-----------------| 
G|-5-5-5-5-5-5-5-5-|-----------------|-----------------|-----------------| 
D|-5-5-5-5-5-5-5-5-|-5-5-5-5-5-5-5-5-|-7-7-7-7-7-7-7-7-|-3-3-3-3-3-3-3-3-| 
A|-3-3-3-3-3-3-3-3-|-5-5-5-5-5-5-5-5-|-7-7-7-7-7-7-7-7-|-3-3-3-3-3-3-3-3-| 
E|-----------------|-3-3-3-3-3-3-3-3-|-5-5-5-5-5-5-5-5-|-1-1-1-1-1-1-1-1-| (x3) 
   . . . . . . . .   . . . . . . . .   . . . .  

Post-Verse 
(Guitar 1) 
e|-----------------|-----------------|-----------------|-----------------| 
B|-----------------|-----------------|-----------------|-----------------| 
G|-5-5-5-5-5-5-5-5-|-----------------|-----------------|-----------------| 
D|-5-5-5-5-5-5-5-5-|-5-5-5-5-5-5-5-5-|-7-7-7-7-7-7-7-7-|-3-3-3-3-3-3-3-3-| 
A|-3-3-3-3-3-3-3-3-|-5-5-5-5-5-5-5-5-|-7-7-7-7-7-7-7-7-|-3-3-3-3-3-3-3-3-| 
E|-----------------|-3-3-3-3-3-3-3-3-|-5-5-5-5-5-5-5-5-|-1-1-1-1-1-1-1-1-| (x2) 

(Guitar 2) 
e|-8-----|---5-7-|-8-----|--------| 
B|---5-5-|-8-----|---5-5-|-8-6-5--| 
G|-------|-------|-------|--------| 
D|-------|-------|-------|--------| 
A|-------|-------|-------|--------| 
E|-------|-------|-------|--------| (x2) 

verse 2 
(Guitar 1) 
e|-----------------|-----------------|-----------------|-----------------| 
B|-----------------|-----------------|-----------------|-----------------| 
G|-5-5-5-5-5-5-5-5-|-----------------|-----------------|-----------------| 
D|-5-5-5-5-5-5-5-5-|-5-5-5-5-5-5-5-5-|-7-7-7-7-7-7-7-7-|-3-3-3-3-3-3-3-3-| 
A|-3-3-3-3-3-3-3-3-|-5-5-5-5-5-5-5-5-|-7-7-7-7-7-7-7-7-|-3-3-3-3-3-3-3-3-| 
E|-----------------|-3-3-3-3-3-3-3-3-|-5-5-5-5-5-5-5-5-|-1-1-1-1-1-1-1-1-| (x3) 
   . . . . . . . .   . . . . . . . .   . . . . . . . .   . . . . . . . . 

e|-----------------|-----------------|-----------------|-----------------| 
B|-----------------|-----------------|-----------------|-----------------| 
G|-5-5-5-5-5-5-5-5-|-----------------|-----------------|-----------------| 
D|-5-5-5-5-5-5-5-5-|-5-5-5-5-5-5-5-5-|-7-7-7-7-7-7-7-7-|-3-3-3-3-3-3-3-3-| 
A|-3-3-3-3-3-3-3-3-|-5-5-5-5-5-5-5-5-|-7-7-7-7-7-7-7-7-|-3-3-3-3-3-3-3-3-| 
E|-----------------|-3-3-3-3-3-3-3-3-|-5-5-5-5-5-5-5-5-|-1-1-1-1-1-1-1-1-| (x3) 
   . . . . . . . .   . . . . . . . .   . . . .  

(Guitar 2) 
e|-------------| 
B|-----5-----6-| 
G|---5-----5---| 
D|-5-----5-----| 
A|-------------| 
E|-------------| (x2) 
   . . . . . . 

Chorus 1 
(Guitar 1) 
e|-----------------|-----------------|-----------------|-----------------| 
B|-----------------|-----------------|-----------------|-----------------| 
G|-5-5-5-5-5-5-5-5-|-----------------|-----------------|-----------------| 
D|-5-5-5-5-5-5-5-5-|-3-3-3-3-3-3-3-3-|-7-7-7-7-7-7-7-7-|-5-5-5-5-5-5-5-5-| 
A|-3-3-3-3-3-3-3-3-|-3-3-3-3-3-3-3-3-|-7-7-7-7-7-7-7-7-|-5-5-5-5-5-5-5-5-| 
E|-----------------|-1-1-1-1-1-1-1-1-|-5-5-5-5-5-5-5-5-|-3-3-3-3-3-3-3-3-| (x2) 

Bridge 
(Guitar 1) 
e|-----------------|-----------------|-----------------|-----------------| 
B|-----------------|-----------------|-----------------|-----------------| 
G|-5-5-5-5-5-5-5-5-|-----------------|-----------------|-----------------| 
D|-5-5-5-5-5-5-5-5-|-5-5-5-5-5-5-5-5-|-7-7-7-7-7-7-7-7-|-3-3-3-3-3-3-3-3-| 
A|-3-3-3-3-3-3-3-3-|-5-5-5-5-5-5-5-5-|-7-7-7-7-7-7-7-7-|-3-3-3-3-3-3-3-3-| 
E|-----------------|-3-3-3-3-3-3-3-3-|-5-5-5-5-5-5-5-5-|-1-1-1-1-1-1-1-1-| (x4) 

(Guitar 2) 
e|---------------|-----------|---------------|-----------| 
B|---------8-----|-8-8-6-5---|---------8-----|-8-8-6-5---| 
G|-5-5-5-5---5-5-|---------7-|-5-5-5-5---5-5-|---------7-| 
D|---------------|-----------|---------------|-----------| 
A|---------------|-----------|---------------|-----------| 
E|---------------|-----------|---------------|-----------| 

e|-------|-------|-------|---------------| 
B|-5-----|-----6-|-5-----|---------------| 
G|---7-5-|-------|---7-5-|-4h5p4h5p4h5p4-| 
D|-------|-5h7---|-------|---------------| 
A|-------|-------|-------|---------------| 
E|-------|-------|-------|---------------| 

e|---------------|-----------|---------------|-----------| 
B|---------8-----|-8-8-6-5---|---------8-----|-8-8-6-5---| 
G|-5-5-5-5---5-5-|---------7-|-5-5-5-5---5-5-|---------7-| 
D|---------------|-----------|---------------|-----------| 
A|---------------|-----------|---------------|-----------| 
E|---------------|-----------|---------------|-----------| 

e|-------|-------|-------|---| 
B|-5-----|-----6-|-5-----|---| 
G|---7-5-|-------|---7-5-|-4-| 
D|-------|-5h7---|-------|---| 
A|-------|-------|-------|---| 
E|-------|-------|-------|---| 

Chorus 2 
(Guitar 1) 
e|-----------------|-----------------|-----------------|-----------------| 
B|-----------------|-----------------|-----------------|-----------------| 
G|-5-5-5-5-5-5-5-5-|-----------------|-----------------|-----------------| 
D|-5-5-5-5-5-5-5-5-|-3-3-3-3-3-3-3-3-|-7-7-7-7-7-7-7-7-|-5-5-5-5-5-5-5-5-| 
A|-3-3-3-3-3-3-3-3-|-3-3-3-3-3-3-3-3-|-7-7-7-7-7-7-7-7-|-5-5-5-5-5-5-5-5-| 
E|-----------------|-1-1-1-1-1-1-1-1-|-5-5-5-5-5-5-5-5-|-3-3-3-3-3-3-3-3-| (x4) 

Outro 
(Guitar 1) 
e|-----------------|-----------------|-----------------|-----------------| 
B|-----------------|-----------------|-----------------|-----------------| 
G|-5-5-5-5-5-5-5-5-|-----------------|-----------------|-----------------| 
D|-5-5-5-5-5-5-5-5-|-3-3-3-3-3-3-3-3-|-7-7-7-7-7-7-7-7-|-5-5-5-5-5-5-5-5-| 
A|-3-3-3-3-3-3-3-3-|-3-3-3-3-3-3-3-3-|-7-7-7-7-7-7-7-7-|-5-5-5-5-5-5-5-5-| 
E|-----------------|-1-1-1-1-1-1-1-1-|-5-5-5-5-5-5-5-5-|-3-3-3-3-3-3-3-3-| (x4) 

e|-----------|-----------| 
B|-------6-5-|---------5-| 
G|-5-5-5-----|-5-5-5-7---| 
D|-----------|-----------| 
A|-----------|-----------| 
E|-----------|-----------| (x8) 


*********************************** 

| .   Palm Mute 
| h   Hammer On 
| p   Pull Off 

*********************************** 
  

top 5 | the lillingtons
top rock'n roll
Outras músicas do artista letras do(a) The Lillingtons
Top cifras »Top artistas »
Petaxxon Comunicação Online
Cifras.com.br - Melhor e mais completo site de cifras e tablaturas do Brasil
Mais de 1 milhão de acordes de músicas cadastradas desde 2003
As informações contidas no nosso site são colaborações de seus usuários e podem conter erros, sendo assim, não nos responsabilizamos sobre nenhuma destas.
close
menos
mais
close
Cor dos acordes:

Cor da letra:

 

save
close
close
 
redimensionar