Cifras e Tablaturas
The Low Budgets

The Low Budgets

Oh Yeah

Cifras Cancelar Versão de Impressão
cifras

The Low Budgets - Oh Yeah

fixar na tela  
Exibindo: vídeo-aula ver clipes redimensionar

Tom:

  
Intro 
e|-----------------------------| 
B|-----------------------------| 
G|-7-7-7-5-5-5-10-10-9-7-7-7---| 
D|-7-7-7-5-5-5-10-10-9-7-7-7---| (4x) 
A|-5-5-5-3-3-3-8--8--7-5-5-5---| 
E|-----------------------------| 
                            OH YEAH! 

verse 1 
Well I work hard for my money 
And I work when I play 
You know find very easy to 
Yes I do it everyday 

e|------------------------------------------------------------| 
B|------------------------------------------------------------| 
G|------------------------------------------------------------| 
D|-7--------------------------------5-5-5-5-5-5-5-5-5-5-------| 
A|-7--------------------------------5-5-5-5-5-5-5-5-5-5-------| 
E|-5--------------------------------3-3-3-3-3-3-3-3-3-3-------| 
                                     PM---------------| 
   Nothings gonna keep me away for you     Because I coming for you 

Chorus 
e|-----------------------------| 
B|-----------------------------| 
G|-7-7-7-5-5-5-10-10-9-7-7-7---| 
D|-7-7-7-5-5-5-10-10-9-7-7-7---| (4x) 
A|-5-5-5-3-3-3-8--8--7-5-5-5---| 
E|-----------------------------| 
                            OH YEAH! 

verse 2 
Well I come home to my old lady 
And have her cook me up a meal 
Cause, you know, I sure got an appetite  
Out there clubing baby seals  

e|------------------------------------------------------------| 
B|------------------------------------------------------------| 
G|------------------------------------------------------------| 
D|-7--------------------------------5-5-5-5-5-5-5-5-5-5-------| 
A|-7--------------------------------5-5-5-5-5-5-5-5-5-5-------| 
E|-5--------------------------------3-3-3-3-3-3-3-3-3-3-------| 
                                     PM---------------| 
   Nothings gonna keep me away for you      

Solo 
e|-----10-----10-----10-----10-----10-----10-----10-----10--| 
B|-12b----12b----12b----12b----12b----12b----12b----12b-----| 
G|----------------------------------------------------------| 
D|----------------------------------------------------------| 
A|----------------------------------------------------------| 
E|----------------------------------------------------------| 

e|----------------------------------------------------------| 
B|----------------------------------------------------------| 
G|----------------------------------------------------------| 
D|-------2h3-2-----------------------2h3-2------------------|  
A|-0-3-5-------5-0-3-3-5-5-5-5-0-3-5-------5-0-3-3-5-5-5-5--| 
E|----------------------------------------------------------| 


Bridge} 
Hey Steve......Oh yeah! 

Outro 
e|------------------------| 
B|------------------------| 
G|-7-7-7-7-7-7-7-7-7-7-6--| 
D|-7-7-7-7-7-7-7-7-7-7-6--| 
A|-5-5-5-5-5-5-5-5-5-5-4--| 
E|------------------------| 
   PM-----------------| 


************************************ 

| b  Bend 
| h  Hammer-on 

************************************ 
  

top 5 | the low budgets
top rock'n roll
Outras músicas do artista letras do(a) The Low Budgets
Top cifras »Top artistas »
Petaxxon Comunicação Online
Cifras.com.br - Melhor e mais completo site de cifras e tablaturas do Brasil
Mais de 1 milhão de acordes de músicas cadastradas desde 2003
As informações contidas no nosso site são colaborações de seus usuários e podem conter erros, sendo assim, não nos responsabilizamos sobre nenhuma destas.
close
menos
mais
close
Cor dos acordes:

Cor da letra:

 

save
close
close
 
redimensionar