Cifras e Tablaturas
The Lumineers

The Lumineers

Aint Nobodys Problem

Cifras Cancelar Versão de Impressão

The Lumineers - Aint Nobodys Problem

Tom:

  			

 Intro 
e|----------------------8----------------------------------7-----7------| 
B|---------------------8------8-------------------------9------9-9----X-| 
G|--------------------8---10--8h9p8--------------------7-------7-7------| 
D|-------8-10--------X-------------10--8h10(p8)-------9----------9------| 
A|--8-10------------X----------------------------X---X-----------X------| 
E|------------8----X--------------------------------X------------X------| 
              ^staccato                                          ^staccato 

e|---------------8-11-10--------------------------------------------| 
B|--------------8--------13-11-8------------------------------------| 
G|--8---8------8-----------------10--/11-10-8---8h9-----------------| 
D|--7---7-----X--------------------------0---10-----g8h10p8---------| 
A|--8---8----X---------------------------------------------h10------| 
E|----------X-------------------------------------------------8-----| 
                                                              ^staccato 

                                                 v 
e|-------8-----------------------------0-------------------------0------------------| 
B|------8---10-8------------------8--7-5---------5--------------1-------------------| 
G|-----8----10-8h9p8-------------------7--7~~----7-7\----------2--------------------| 
D|----X-------------h10-g8h10p8--------6--6~~------6\----3----3---------2--------2--| 
A|---X-------------------------h10-----7--7~~------7\--0-0---0----------0--------0--| 
E|--X----------------------------------0------------------------------1-----0-1-----| 
                                                         ^staccato 

************************************ 

| X    Dead note 
| h    Hammer-on 
| p    Pull off 
| /    Slide up 
| \    Slide down 
| ()   Ghost note 
| g    Grace note 
| ~    Vibrato 

************************************ 
    	
fixar
fixar inscrever-se

enviado porenviado por: bombaXXX
cifra enviadaCorrigida por: sem correções
logo top cifrasComente
ico música do artistaMúsicas deste artista
ico curtiuCurtiu?
ico destaqueDestaque
Petaxxon Comunicação Online

Cifras.com.br - Melhor e mais completo site de cifras e tablaturas do Brasil Mais de 1 milhão de acordes de músicas cadastradas desde 2003
As informações contidas no nosso site são colaborações de seus usuários e podem conter erros, sendo assim, não nos responsabilizamos sobre nenhuma destas.

close
menos
mais
close
Cor dos acordes:

Cor da letra:

close
Alinhar acordes a direita Alinhar acordes a esquerda Alinhar acordes em baixo Alinhar acordes no topo
close
  Mostrar todos os acordes Esconder acordes muito fáceis Esconder acordes fáceis Esconder acordes intermediários
redimensionar
glossário