Cifras e Tablaturas
The Mayfield Four

The Mayfield Four

Eden Turn The Page

Cifras Cancelar Versão de Impressão
cifras

The Mayfield Four - Eden Turn The Page

fixar na tela  
Exibindo: vídeo-aula ver clipes redimensionar

Tom:

  
Intro/Verse 
e|---0--0--0--0--0----0--0--0--0--0-------------------------5--5| 
B|---5--7--5--7--5----7--5--7--5--5---7--5--7--5---7--5--7--5--5| 
G|---7--7--7--7--7----7--7--7--7--7---7--7--7--7---7--7--7--7--7| 
D|---0--0--0--0--0----0--0--0--0--0---5--5--5--5---5--5--5--5--5| 
A|---0--0--0--0--0----0--0--0--0--0---5--5--5--5---5--5--5--5--5| 
D|-----------------------------------5------------5-------------| 

Verse End 
e|-------------------------------0| 
B|----7--5--7--7--5--7--7--5--7--5| 
G|----7--7--7--7--7--7--7--7--7--7| 
D|----5--5--5--5--5--5--5--5--5--0| 
A|----5--5--5--5--5--5--5--5--5--0| 
D|--5----------------------------0| 

Chorus 
e|--------------------------0-------| 
B|---3----------------------3-------| 
G|---2---2------------------2---2---| 
D|---0---2---5--------------0---2---| 
A|---0---0---5--------------0---0---| 
D|---0-------5--5-4-5-4-2---0----5/7| 

Bridge 
e|----3----3---------0| 
B|----3----3----3----3| 
G|----0----0----3----2| 
D|----x----0----3----0| 
A|----3---------5----0| 
D|--------------------| 

Little part underneath the acoustic Chorus 
(2:25-2:32, 2:39-2:46) 
e|-------------------------------| 
B|-------------------------------| 
G|------5---5-4-5---4-------5-4--| 
D|--5-7---------------7-5-------7| 
A|-------------------------------| 
D|-------------------------------| 

Outro 
e|---0---x---0---x---x---0| 
B|---3---6---3---6---8---3| 
G|---2---0---2---0---0---2| 
D|---0---0---0---0---0---0| 
A|---0---x---0---x---x---0| 
D|---0---8---0---8---10--0| 

  

************************************ 

| /  Slide up 
| x  Dead note 

************************************ 
  

top 5 | the mayfield four
top rock'n roll
Outras músicas do artista letras do(a) The Mayfield Four
Top cifras »Top artistas »
Petaxxon Comunicação Online
Cifras.com.br - Melhor e mais completo site de cifras e tablaturas do Brasil
Mais de 1 milhão de acordes de músicas cadastradas desde 2003
As informações contidas no nosso site são colaborações de seus usuários e podem conter erros, sendo assim, não nos responsabilizamos sobre nenhuma destas.
close
menos
mais
close
Cor dos acordes:

Cor da letra:

 

save
close
close
 
redimensionar