Cifras e Tablaturas
The Offspring

The Offspring

Come Out and Play Tablatura Verificada

Ano: 2005
Album : The Offspring - Greatest Hits
Compositor : (Dexter Holland)

Cifras Cancelar Versão de Impressão
cifras

The Offspring - Come Out and Play

fixar na tela  
Exibindo: vídeo-aula ver clipes redimensionar
  
Intro: B5 D5 F#5 A5 (4x) 

e|---7-7-7-7-----10\5--5--| 
B|---7-7-7-7-----10\5--5--| 
G|------------------------| 
D|------------------------| 
A|------------------------| 
E|------------------------| 

e|---------------------------------| 
B|---------------------------------| 
G|---------------------------------| 
D|---------------------------------| 
A|-----------6-7-7h9-7-6-----------| 
E|------7-8---------------8-7~-8-7-| 

Verse: B5 F#5 A5 B5 D5 F#5 A5 B5 

Verse 2: E5 G5 F#5 B5 D5 (2x)  B5 F#5 A5 B5 D5 F#5 A5 F#5 

Chorus: B5 D5 F#5 A5 B5 D5 F#5 A5 B5 D5 F#5 A5 B5 (2x)  

        B5 D5 F#5 A5 B5 D5 F#5 E5 C5 B5 D5 F#5 A5 F#5 A5 B5 D5 F#5 A B5 

  

cifra enviadacorrigido por:Acelot
enviado poranônimo
top 5 | the offspring
top rock'n roll
Outras músicas do artista letras do(a) The Offspring
Top cifras »Top artistas »
Petaxxon Comunicação Online
Cifras.com.br - Melhor e mais completo site de cifras e tablaturas do Brasil
Mais de 1 milhão de acordes de músicas cadastradas desde 2003
As informações contidas no nosso site são colaborações de seus usuários e podem conter erros, sendo assim, não nos responsabilizamos sobre nenhuma destas.
close
menos
mais
close
Cor dos acordes:

Cor da letra:

 

save
close
close
 
redimensionar