Cifras e Tablaturas
The Orwells

The Orwells

Vanilla

Cifras Cancelar Versão de Impressão
cifras

The Orwells - Vanilla

fixar na tela  
Exibindo: vídeo-aula ver clipes redimensionar

Tom:

E

ver outros tons
  
Intro/Bridge/Outro rhythm guitar 
e|-------------------------------------| 
B|-------------------------------------| 
G|-------------------------------------| 
D|-9---9-9------9--9---9--9--9--9--9---| 
A|-7---7-7-7--7-7--7---7--7--7--7--7---| 
E|---------5--5------------------------| 

Verse rhythm guitar 
e|--------------------------------| 
B|--------------------------------| 
G|--------------------------------| 
D|-9-9-9-9-9-9-9-9-9-9-9-9-9-9-9-9| 
A|-7-7-7-7-7-7-7-7-7-7-7-7-7-7-7-7| 
E|--------------------------------| 

Intro 
e|--------------| 
B|-0------------| 
G|---4b^--------| 
D|--------------| 
A|--------------| 
E|--------------| 
   E       A    E 
e|-------------------------------------| 
B|-8---5-3-5--3-5----------------------| 
G|-----------------4b^-4b-4b-4b-4b-4b--| 
D|-------------------------------------| 
A|-------------------------------------| 
E|-------------------------------------| 
   E       A    E 
e|-------------------------------------| 
B|-8---5-3-5--3-5----------------------| 
G|-----------------4b^-4b-4b-4b-4b-4b--| 
D|-------------------------------------| 
A|-------------------------------------| 
E|-------------------------------------| 
   E       A    E 
e|-------------------------------------| 
B|-8---5-3-5--3-5----------------------| 
G|-----------------4b^-4b-4b-4b-4b-4b--| 
D|-------------------------------------| 
A|-------------------------------------| 
E|-------------------------------------| 
   E       A    E 
e|-------------------------------------| 
B|-8---5-3-5--3-5----------------------| 
G|-----------------4b^-4b-4b-4b-4b-4b--| 
D|-------------------------------------| 
A|-------------------------------------| 
E|-------------------------------------| 

verse 1 
   E 
   Middle america          You're like a 
e|--------------------------------| 
B|--------------------------------| 
G|-7-7-7-7-6-6-6-4-4-4-4-4-4-4-4-4| 
D|--------------------------------| 
A|--------------------------------| 
E|--------------------------------| 
   E 
   bad     boy vanilla 
e|--------------------------------| 
B|--------------------------------| 
G|-7-7-7-7-6-6-6-4-4-4-4-4-4-4-4-4| 
D|--------------------------------| 
A|--------------------------------| 
E|--------------------------------| 
   E 
   Middle america       You'll watch; you're 
e|--------------------------------| 
B|--------------------------------| 
G|-7-7-7-7-6-6-6-4-4-4-4-4-4-4-4-4| 
D|--------------------------------| 
A|--------------------------------| 
E|--------------------------------| 
   E 
   fa- mi-lies vanilla 
e|--------------------------------| 
B|--------------------------------| 
G|-7-7-7-7-6-6-6-4-4-4-4-4-4-4-4-4| 
D|--------------------------------| 
A|--------------------------------| 
E|--------------------------------| 
       A 
You'll fear the conversations; Better be nice 
e|-----------------------| 
B|-----------------------| 
G|-----------------------| 
D|-----------------------| 
A|-7---7-7-----7---7-7---| 
E|-5---5-5-----5---5-5---| 
         A 
If your child's pre-school gonna be just white 
e|----------------------------------| 
B|----------------------------------| 
G|--9-9-9-9-9-9-9-9-9-9-9-9-9-9-9-9-| 
D|--7-7-7-7-7-7-7-7-7-7-7-7-7-7-7-7-| 
A|----------------------------------| 
E|----------------------------------| 

verse 2 
   E 
   Middle america          You're like a 
e|--------------------------------| 
B|--------------------------------| 
G|-7-7-7-7-6-6-6-4-4-4-4-4-4-4-4-4| 
D|--------------------------------| 
A|--------------------------------| 
E|--------------------------------| 
   E 
   ra-  di-o   vanilla 
e|--------------------------------| 
B|--------------------------------| 
G|-7-7-7-7-6-6-6-4-4-4-4-4-4-4-4-4| 
D|--------------------------------| 
A|--------------------------------| 
E|--------------------------------| 
   E 
   Middle america       You're like a 
e|--------------------------------| 
B|--------------------------------| 
G|-7-7-7-7-6-6-6-4-4-4-4-4-4-4-4-4| 
D|--------------------------------| 
A|--------------------------------| 
E|--------------------------------| 
   E 
   neighborhood vanilla 
e|--------------------------------| 
B|--------------------------------| 
G|-7-7-7-7-6-6-6-4-4-4-4-4-4-4-4-4| 
D|--------------------------------| 
A|--------------------------------| 
E|--------------------------------| 
      A 
You'd say you're out for quality 
e|-----------------------| 
B|-----------------------| 
G|-----------------------| 
D|-----------------------| 
A|-7---7-7-----7---7-7---| 
E|-5---5-5-----5---5-5---| 
         A 
But you know those black kids give you the 
e|----------------------------------| 
B|----------------------------------| 
G|--9-9-9-9-9-9-9-9-9-9-9-9-9-9-9-9-| 
D|--7-7-7-7-7-7-7-7-7-7-7-7-7-7-7-7-| 
A|----------------------------------| 
E|----------------------------------| 

Bridge 
   E       A    E 
   creeps               Give you the 
e|-------------------------------------| 
B|-8---5-3-5--3-5----------------------| 
G|-----------------4b^-4b-4b-4b-4b-4b--| 
D|-------------------------------------| 
A|-------------------------------------| 
E|-------------------------------------| 
   E       A    E 
   creeps 
e|-------------------------------------| 
B|-8---5-3-5--3-5----------------------| 
G|-----------------4b^-4b-4b-4b-4b-4b--| 
D|-------------------------------------| 
A|-------------------------------------| 
E|-------------------------------------| 
   E       A    E 
e|-------------------------------------| 
B|-8---5-3-5--3-5--3-5---3-5-5--3-5-5--| 
G|-------------------------------------| 
D|-------------------------------------| 
A|-------------------------------------| 
E|-------------------------------------| 
  E    A    E 
e|-------------------------------------| 
B|3-5-5--3---5-5-5--3-5-5-5--3-5-5-5---| 
G|-------------------------------------| 
D|-------------------------------------| 
A|-------------------------------------| 
E|-------------------------------------| 

verse 3 
   E 
   Middle america          You're like an 
e|--------------------------------| 
B|--------------------------------| 
G|-7-7-7-7-6-6-6-4-4-4-4-4-4-4-4-4| 
D|--------------------------------| 
A|--------------------------------| 
E|--------------------------------| 
   E 
   S-  U-  V's vanilla 
e|--------------------------------| 
B|--------------------------------| 
G|-7-7-7-7-6-6-6-4-4-4-4-4-4-4-4-4| 
D|--------------------------------| 
A|--------------------------------| 
E|--------------------------------| 
   E 
   Middle america       You're like a 
e|--------------------------------| 
B|--------------------------------| 
G|-7-7-7-7-6-6-6-4-4-4-4-4-4-4-4-4| 
D|--------------------------------| 
A|--------------------------------| 
E|--------------------------------| 
   E 
   tea-  cher's vanilla 
e|--------------------------------| 
B|--------------------------------| 
G|-7-7-7-7-6-6-6-4-4-4-4-4-4-4-4-4| 
D|--------------------------------| 
A|--------------------------------| 
E|--------------------------------| 
           A 
When your child starts to rock the boat 
e|-----------------------| 
B|-----------------------| 
G|-----------------------| 
D|-----------------------| 
A|-7---7-7-----7---7-7---| 
E|-5---5-5-----5---5-5---| 
         A 
You can throw some pills right down his throat 
e|----------------------------------| 
B|----------------------------------| 
G|--9-9-9-9-9-9-9-9-9-9-9-9-9-9-9-9-| 
D|--7-7-7-7-7-7-7-7-7-7-7-7-7-7-7-7-| 
A|----------------------------------| 
E|----------------------------------| 

verse 4 
   E 
   Middle america          You're like a 
e|--------------------------------| 
B|--------------------------------| 
G|-7-7-7-7-6-6-6-4-4-4-4-4-4-4-4-4| 
D|--------------------------------| 
A|--------------------------------| 
E|--------------------------------| 
   E 
   bartender's vanilla 
e|--------------------------------| 
B|--------------------------------| 
G|-7-7-7-7-6-6-6-4-4-4-4-4-4-4-4-4| 
D|--------------------------------| 
A|--------------------------------| 
E|--------------------------------| 
   E 
   Middle america       You're like a 
e|--------------------------------| 
B|--------------------------------| 
G|-7-7-7-7-6-6-6-4-4-4-4-4-4-4-4-4| 
D|--------------------------------| 
A|--------------------------------| 
E|--------------------------------| 
   E 
   T-  V-  set vanilla 
e|--------------------------------| 
B|--------------------------------| 
G|-7-7-7-7-6-6-6-4-4-4-4-4-4-4-4-4| 
D|--------------------------------| 
A|--------------------------------| 
E|--------------------------------| 
      A 
You'd say you're all for quality 
e|-----------------------| 
B|-----------------------| 
G|-----------------------| 
D|-----------------------| 
A|-7---7-7-----7---7-7---| 
E|-5---5-5-----5---5-5---| 
          A 
But you know them gay kids still give you the 
e|----------------------------------| 
B|----------------------------------| 
G|--9-9-9-9-9-9-9-9-9-9-9-9-9-9-9-9-| 
D|--7-7-7-7-7-7-7-7-7-7-7-7-7-7-7-7-| 
A|----------------------------------| 
E|----------------------------------| 

Outro 
   E       A    E 
   creeps               Give you the 
e|-------------------------------------| 
B|-8---5-3-5--3-5----------------------| 
G|-----------------4b^-4b-4b-4b-4b-4b--| 
D|-------------------------------------| 
A|-------------------------------------| 
E|-------------------------------------| 
   E       A    E 
   creeps 
e|-------------------------------------| 
B|-8---5-3-5--3-5----------------------| 
G|-----------------4b^-4b-4b-4b-4b-4b--| 
D|-------------------------------------| 
A|-------------------------------------| 
E|-------------------------------------| 
   E       A    E 
e|-------------------------------------| 
B|-8---5-3-5--3-5----------------------| 
G|-----------------4b^-4b-4b-4b-4b-4b--| 
D|-------------------------------------| 
A|-------------------------------------| 
E|-------------------------------------| 
   E       A    E 
e|-------------------------------------| 
B|-8---5-3-5--3-5----------------------| 
G|-----------------4b^-4b-4b-4b-4b-4b--| 
D|-------------------------------------| 
A|-------------------------------------| 
E|-------------------------------------| 
   E 
e|-------------------------------------| 
B|-------------------------------------| 
G|-4b----------------------------------| 
D|-------------------------------------| 
A|-------------------------------------| 
E|-------------------------------------| 
                                       E 
e|-----------------------------------------| 
B|-8---5-3-5--3-5--------------------------| 
G|-----------------4b^-4b-4b-4b-4b-4b--4---| 
D|-------------------------------------2---| 
A|-----------------------------------------| 
E|-----------------------------------------| 

************************************ 

| b   Bend note 
| ^   Bend the note just a bit more than you think you should 

************************************ 
  

cifra enviadasem correções
enviado porenviada por:edsooliveira
top 5 | the orwells
top rock'n roll
Outras músicas do artista letras do(a) The Orwells
Top cifras »Top artistas »
Petaxxon Comunicação Online
Cifras.com.br - Melhor e mais completo site de cifras e tablaturas do Brasil
Mais de 1 milhão de acordes de músicas cadastradas desde 2003
As informações contidas no nosso site são colaborações de seus usuários e podem conter erros, sendo assim, não nos responsabilizamos sobre nenhuma destas.
close
menos
mais
close
Cor dos acordes:

Cor da letra:

 

save
close
close
 
redimensionar