Cifras e Tablaturas
The Phantoms

The Phantoms

Cachina

Cifras Cancelar Versão de Impressão

The Phantoms - Cachina

Tom: B

  			
Intro (0:01) 

e-------------------------------| 
b---------------4-4-4--------7--| 
g------3--4-4-4-------6-6-6-----| 
d--4-6--------------------------| 
a-------------------------------| 
e-------------------------------| 

e-------------------------------| 
b---------------4-4-4--------7--| 
g------3--4-4-4-------6-6-6-----| 
d--4-6--------------------------| 
a-------------------------------| 
e-------------------------------| 



Verse (0:08) 

B C#m F# 
Cachina 

B C#m F# 
Cachina 



Chorus (0:15) 

e--11-11-11-11----------9-9-9-9--------------------------------------9--| 
b--------------12-12-12---------11-11-11--12-12-12-12-9-9-9--9-11-12----| 
g-----------------------------------------------------------------------| 
d-----------------------------------------------------------------------| 
a-----------------------------------------------------------------------| 
e-----------------------------------------------------------------------| 

e--11-11-11-11----------9-9-9-9-----------------------------------9-----| 
b--------------12-12-12---------11-11-11--12-12-12-12-9-9-9--9-11---12--| 
g-----------------------------------------------------------------------| 
d-----------------------------------------------------------------------| 
a-----------------------------------------------------------------------| 
e-----------------------------------------------------------------------| 



Chorus (0:29) 

e--11-11-11-11----------9-9-9-9--------------------------------------9--| 
b--------------12-12-12---------11-11-11--12-12-12-12-9-9-9--9-11-12----| 
g-----------------------------------------------------------------------| 
d-----------------------------------------------------------------------| 
a-----------------------------------------------------------------------| 
e-----------------------------------------------------------------------| 

e--11-11-11-11----------9-9-9-9-----------------------------------9-----| 
b--------------12-12-12---------11-11-11--12-12-12-12-9-9-9--9-11---12--| 
g-----------------------------------------------------------------------| 
d-----------------------------------------------------------------------| 
a-----------------------------------------------------------------------| 
e-----------------------------------------------------------------------| 



Bridge (0:44) 

e---------------------------------------------------------| 
b---------------------------------------------------------| 
g--------------------------8-8-8--8----8-9-9-9--9-8-9-11--| 
d--9-8-9-11-11-11--11-9-11----------11--------------------| 
a---------------------------------------------------------| 
e---------------------------------------------------------| 

e-------------------------------------------------------------9--| 
b----------9-9-9--9----9-11-11-11--11-9-11-12-12-12--12-11-12----| 
g--11-9-11----------11-------------------------------------------| 
d----------------------------------------------------------------| 
a----------------------------------------------------------------| 
e----------------------------------------------------------------| 



Chorus (0:56) 

e--11-11-11-11----------9-9-9-9--------------------------------------9--| 
b--------------12-12-12---------11-11-11--12-12-12-12-9-9-9--9-11-12----| 
g-----------------------------------------------------------------------| 
d-----------------------------------------------------------------------| 
a-----------------------------------------------------------------------| 
e-----------------------------------------------------------------------| 

e--11-11-11-11----------9-9-9-9-----------------------------------9-----| 
b--------------12-12-12---------11-11-11--12-12-12-12-9-9-9--9-11---12--| 
g-----------------------------------------------------------------------| 
d-----------------------------------------------------------------------| 
a-----------------------------------------------------------------------| 
e-----------------------------------------------------------------------| 



Verse (1:10) 

B C#m F# 
Cachina 

B C#m F# 
Cachina 



Chorus (Lower) (1:17) 

e---------------------------------------------------------------| 
b---------------------------------------------------------------| 
g--7-7-7-7------------------------------------------------------| 
d----------9-9-9--11-11-11-11-7-7-7--9-9-9--------------7-9-11--| 
a------------------------------------------10-10-10--10---------| 
e---------------------------------------------------------------| 

e---------------------------------------------------------------| 
b---------------------------------------------------------------| 
g--7-7-7-7------------------------------------------------------| 
d----------9-9-9--11-11-11-11-7-7-7--9-9-9--------------7-11-9--| 
a------------------------------------------10-10-10--10---------| 
e---------------------------------------------------------------| 



Bridge (1:30) 

e---------------------------------------------------------| 
b---------------------------------------------------------| 
g--------------------------8-8-8--8----8-9-9-9--9-8-9-11--| 
d--9-8-9-11-11-11--11-9-11----------11--------------------| 
a---------------------------------------------------------| 
e---------------------------------------------------------| 

e-------------------------------------------------------------9--| 
b----------9-9-9--9----9-11-11-11--11-9-11-12-12-12--12-11-12----| 
g--11-9-11----------11-------------------------------------------| 
d----------------------------------------------------------------| 
a----------------------------------------------------------------| 
e----------------------------------------------------------------| 



Chorus (1:45) 

e--11-11-11-11----------9-9-9-9--------------------------------------9--| 
b--------------12-12-12---------11-11-11--12-12-12-12-9-9-9--9-11-12----| 
g-----------------------------------------------------------------------| 
d-----------------------------------------------------------------------| 
a-----------------------------------------------------------------------| 
e-----------------------------------------------------------------------| 


e--11-11-11-11----------9-9-9-9-----------------------------------9-----| 
b--------------12-12-12---------11-11-11--12-12-12-12-9-9-9--9-11---12--| 
g-----------------------------------------------------------------------| 
d-----------------------------------------------------------------------| 
a-----------------------------------------------------------------------| 
e-----------------------------------------------------------------------| 



Outro (1:59) 

B C#m F# 
Cachina 

B C#m F# 
Cachina 

B C#m F# 
Cachina 

B C#m F# 
Cachina 
    	
fixar
fixar inscrever-se

enviado porenviado por: terr_schmitz
cifra enviadaCorrigida por: sem correções
logo top cifrasComente
ico música do artistaMúsicas deste artista
ico curtiuCurtiu?
ico destaqueDestaque
Petaxxon Comunicação Online

Cifras.com.br - Melhor e mais completo site de cifras e tablaturas do Brasil Mais de 1 milhão de acordes de músicas cadastradas desde 2003
As informações contidas no nosso site são colaborações de seus usuários e podem conter erros, sendo assim, não nos responsabilizamos sobre nenhuma destas.

close
menos
mais
close
Cor dos acordes:

Cor da letra:

close
Alinhar acordes a direita Alinhar acordes a esquerda Alinhar acordes em baixo Alinhar acordes no topo
close
  Mostrar todos os acordes Esconder acordes muito fáceis Esconder acordes fáceis Esconder acordes intermediários
redimensionar
glossário