Cifras e Tablaturas
The Pop's

The Pop's

Apache

Cifras Cancelar Versão de Impressão Print

The Pop's - Apache

Tom: Am

  • 0:00 / 0:00
  			Apache 


 
      Am              D 
E|--0---------------2-----4/5-3-0-----| 
B|--1-----1-3/4/3---3---1-------------| 
G|--2---2-----------2--2--------------|   X2 
D|------------------------------------| 
A|------------------------------------| 
E|------------------------------------| 
 



 
    Am        D         Am      D 
E|------------------------------------| 
B|------------------------------------| 
G|----2---2-------------2---2---------| 
D|--2---2---4-2-0-2---2---2---4-2-0-2-| 
A|------------------------------------| 
E|------------------------------------| 
 



 
       Dm     G          Am    D 
E|------------------------------------| 
B|------------------------------------| 
G|----7---7-------------2---2---------| 
D|--7---7---9-7-0-7---2---2---4-2-0-2-| 
A|------------------------------------| 
E|------------------------------------| 
 



 
    F                               Am 
E|------------------------------------| 
B|------------------------------------| 
G|------------------------------------|   X2 
D|---3-3-3---3-3-3---3-3-3---3-3-3-2--| 
A|-3-------3-------3-------3--------0-| 
E|------------------------------------| 
 



 
   F        G          Am 
E|------------------------------------| 
B|------1-0--1-3-5-3-1----------------| 
G|----2----------------2--------------| 
D|--3---------------------------------| 
A|------------------------------------| 
E|------------------------------------| 
 



 
     F    G      C                   Am 
E|--------------------3-------5-------| 
B|-----1-0--1-3?--3/5---5-5/7---7-7/b9| 
G|---2----------0---------------------| 
D|-3----------------------------------| 
A|------------------------------------| 
E|------------------------------------| 
 



 
      F     G     C    Am 
E|------------------------------------| 
B|------1-0--1-3-5-3-1----------------| 
G|----2----------------2--------------| 
D|--3---------------------------------| 
A|------------------------------------| 
E|------------------------------------| 
 



 
    F                                Am 
E|------------------------------------| 
B|------------------------------------| 
G|------------------------------------|   X2 
D|---3-3-3---3-3-3---3-3-3---3-3-3-2--| 
A|-3-------3-------3-------3--------0-| 
E|------------------------------------| 
 



 
    Am           D 
E|-----------------------------------------------------| 
B|-----------------------------------------------------| 
G|--2-2-2-2---2-2----------------2---------------------|  X2 
D|-2-------2-2---4-4-4-4-2-2-0-0?2---------------------| 
A|-----------------------------------------------------| 
E|-----------------------------------------------------| 
 



 
    Dm            G 
E|-----------------------------------------------------| 
B|-----------------------------------------------------| 
G|--7-7-7-7---7-7----------------7---------------------| 
D|-7-------7-7---9-9-9-9-7-7-0-0?7---------------------| 
A|-----------------------------------------------------| 
E|-----------------------------------------------------| 
 



 
    Am           D 
E|-----------------------------------------------------| 
B|-----------------------------------------------------| 
G|--2-2-2-2---2-2--------------------------------------| 
D|-2-------2-2---4-4-4-4-2-2-0-0-2-2-2-2-2-2-2-2-2-2---| 
A|-----------------------------------------------------| 
E|-----------------------------------------------------| 
 



 
    F       G         Am 
E|------------------------------------| 
B|------1-0--1-3-5-3-1----------------| 
G|----2----------------2--------------| 
D|--3---------------------------------| 
A|------------------------------------| 
E|------------------------------------| 
 



 
    F      G           Am     C 
E|----------------------------------------| 
B|----1-0--1-3-5--------------------------| 
G|---2-----------1-1-1-1-1-1-2-1/3-1------| 
D|--3-------------------------------------| 
A|----------------------------------------| 
E|----------------------------------------| 
 



 
    F      G           Am C 
E|------------------------------------| 
B|------1-0--1-3-5-3-1----------------| 
G|----2----------------2--------------| 
D|--3---------------------------------| 
A|------------------------------------| 
E|------------------------------------| 
 



 
    F                               Am 
E|------------------------------------| 
B|------------------------------------| 
G|------------------------------------|   X2 
D|---3-3-3---3-3-3---3-3-3---3-3-3-2--| 
A|-3-------3-------3-------3--------0-| 
E|------------------------------------| 
 



 
    F            G         Am 
E|------------------------------------| 
B|------------------------------------| 
G|------------------------------------| 
D|------------------------------------| 
A|------------------------------------| 
E|-1-1-1-4-4-4-6-6-6-8-8-8-7----------| 
 


      Am              D 
E|--0---------------2-----4/5-3-0-----| 
B|--1-----1-3/4/3---3---1-------------| 
G|--2---2-----------2--2--------------|   X4 
D|------------------------------------| 
A|------------------------------------| 
E|------------------------------------| 
    	

enviado porenviado por: PAULLET3
cifra enviadaCorrigida por: sem correções
logo top cifrasComente
ico música do artistaMúsicas deste artista
ico curtiuCurtiu?
ico destaqueDestaque
Petaxxon Comunicação Online

Cifras.com.br - Melhor e mais completo site de cifras e tablaturas do Brasil Mais de 1 milhão de acordes de músicas cadastradas desde 2003
As informações contidas no nosso site são colaborações de seus usuários e podem conter erros, sendo assim, não nos responsabilizamos sobre nenhuma destas.

close
menos
mais
close
Cor dos acordes:

Cor da letra:

close
Alinhar acordes a direita Alinhar acordes a esquerda Alinhar acordes em baixo Alinhar acordes no topo
close
  Mostrar todos os acordes Esconder acordes muito fáceis Esconder acordes fáceis Esconder acordes intermediários
redimensionar
glossário