Cifras e Tablaturas
The Preatures

The Preatures

Somebodys Talking

Cifras Cancelar Versão de Impressão
cifras

The Preatures - Somebodys Talking

fixar na tela  
Exibindo: vídeo-aula ver clipes redimensionar
  
e|---------------------|---------|---------|----------|------------------------|-A---------------------------| 
B|---------------------|---------|---------|-add------|-------------6-6-5-5-5--|-variation------------6-6----| 
G|---------------------|-repeat -|-------5-|-this-----|-------------5-5-5-5-5--|-used-----------------5-5----| 
D|----5h7-----5-----5--|---a-----|----5h7--|-in-------|----5-----5-------------|-here------5-------5---------| 
A|-5/7-----3-3-3-3-3---|--few ---|-5/7-----|-on-------|-3-3-3-3-3--------------|-is ------3-3-3-3-3----------| 
E|---------------------|-times---|---------|-occasion-|------------------------|-just------------------------| 

O

G2 

e|-------------------------|-R-|--------------|-V-|-----------------------------|----------------------------| 
B|-------------------------|-E-|--------------|-A-|-----------------------------|----------------------------| 
G|-------------------------|-P-|--------------|-R-|--------------10-10-9--9--9--|--OR...--------------10-10--| 
D|-------------------------|-E-|-----------10-|-I-|--------------10-10-10-10-10-|---------------------10-10--| 
A|------10h12----10-----10-|-A-|------10h12---|-A-|----10-----10----------------|-----------10-----10--------| 
E|-10/12------8-8--8-8-8---|-T-|-10/12--------|-T-|-8-8--8-8-8------------------|--------8-8--8-8-8----------| 
                                                I 
                                                O 
                                                N  



   CCC/D          DDD/C      CC/D/A#       A#A#/D/C         Cx8 
e|---------------------------------------------------------------------------| 
B|---------------------------------------------------------------------------| 
G|-5-5-5-/-7-----7-7-7-/-5---5-5-/-7-/-3---3-3-/-7-/-5------5-5-5-5-5-5-5-5--| 
D|-5-5-5-/-7-----7-7-7-/-5---5-5-/-7-/-3---3-3-/-7-/-5------5-5-5-5-5-5-5-5--| 
A|-3-3-3-/-5-----5-5-5-/-3---3-3-/-5-/-1---1-1-/-5-/-3------3-3-3-3-3-3-3-3--| 
E|---------------------------------------------------------------------------| 

G2, if you choose to have two guitars then G2 would be playing this most likely... 

e|----------------------------------------------------------------------------------------------------------| 
B|----------------------------------------------------------------------------------------------------------| 
G|----------------------------------------------------------------------------------------------------------| 
D|-10-10-10-/-12-----12-12-12-/-10----10-10-/-12--/-8----8-8-/-12-/-10----10-10-10-10-10-10-10-10-----------| 
A|-10-10-10-/-12-----12-12-12-/-10----10-10-/-12--/-8----8-8-/-12-/-10----10-10-10-10-10-10-10-10-----------| 
E|-8--8--8--/-10-----10-10-10-/-8-----8--8--/-10--/-6----6-6-/-10-/-8-----8--8--8--8--8--8--8--8------------| 

Chorus TIME BABY.  

A#:         Dm:      C: 

e|--6-------5--------3-----------------------------------------------------------| 
B|--6-------6--------5-----------------------------------------------------------| 
G|--7-------7--------5-----------------------------------------------------------| 
D|--8-------7--------5-----------------------------------------------------------| 
A|--8-------5--------3-----------------------------------------------------------| 
E|--6----------------------------------------------------------------------------| 



e|---------------------------------------------------------------------------| 
B|--15-15-15-13-10--10-8-6-6-------------------------------------------------| 
G|---------------------------------------------------------------------------| 
D|---------------------------------------------------------------------------| 
A|---------------------------------------------------------------------------| 
E|---------------------------------------------------------------------------|  
  

cifra enviadasem correções
enviado porenviada por:terr_schmitz
top 5 | the preatures
top rock'n roll
Outras músicas do artista letras do(a) The Preatures
Top cifras »Top artistas »
Petaxxon Comunicação Online
Cifras.com.br - Melhor e mais completo site de cifras e tablaturas do Brasil
Mais de 1 milhão de acordes de músicas cadastradas desde 2003
As informações contidas no nosso site são colaborações de seus usuários e podem conter erros, sendo assim, não nos responsabilizamos sobre nenhuma destas.
close
menos
mais
close
Cor dos acordes:

Cor da letra:

 

save
close
close
 
redimensionar