Cifras e Tablaturas
Cifras Cancelar Versão de Impressão
cifras

The Pretty Reckless - Wild City

fixar na tela  
Exibindo: vídeo-aula ver clipes redimensionar
  
Intro 
e--------------------------------------------------------------------------------------------| 
B----------------------9---------------------------------------------------------------------| 
G--------------------9---12-11-9-------------------------------------------------------------| 
D---------------9-11-------------11-9--------------------------------------------------------| 
A-------9-10-11-----------------------11-10-9----------------4-------------------------------| 
E--/9-12---------------------------------------12-9-7-4-3-2-0--------------------------------| 

intro part 2 
e----------------------------------------------------------------------------------------------| 
B----------------------------------------------------------------------------------------------| 
G------------------9-------------------------9/11/9--------------------------------------------| 
D-11/9/11--11/9/11-9----------------11/9/11--9/11/9--------------------------------------------| 
A-11/9/11--11/9/11-7----------------11/9/11--7/9-/7--------------------------------------------| 
E-9-/7/9---9-/7/9-----9-7-9-7h9-0---9-/7/9-----------------------------------------------------| 

verse 
e---------------------------------------------------------------------------------------------| 
B---------------------------------------------------------------------------------------------| 
G--------------9-------------------9----------11-11-11-------------------9-------------------| 
D-11-11---9/11-9--11---11-11--9/11-9-11/9/11--11-11-11-------11-11--9/11-9-11-11-------------| 
A-11-11---9/11-7--11---11-11--9/11-7-11/9/11--9--9--9(5x)-7*-11-11--9/11-7-11-11-------------| 
E-9--9----7/9-----9----9--9---7/9-----9/7/9------------------9--9---7/9-----9--9--------------| 

Chorus part 1 
e----------------------------------------------------------------------------------------------| 
B----------------------------------------------------------------------------------------------| 
G----------------------9------------9-11-9-----------------------------------------------------| 
D-11-11--9/11--11/9/11-9----11-11---9-11-9---11/9/11-------------------------------------------| 
A-11-11--9/11--11/9/11-7----11-11---7-9--7---11/9/11-------------------------------------------| 
E-9--9---7/9---9/-7/9-------9--9-------------9-/7/9--------------------------------------------| 

Chorus Part 2 
e----------------------------------------------------------------------------------------------| 
B----------------------------------------------------------------------------------------------| 
G----------------------9-11-9------------------------------------------------------------------| 
D-11-11-9-11---11-9-11-9-11-9---7---6----------------------------------------------------------| 
A-11-11-9-11---11-9-11-7-9--7---7---6----------------------------------------------------------| 
E-9--9--7-9----9--7-9-----------5---4----------------------------------------------------------| 

intro part 2 
e----------------------------------------------------------------------------------------------| 
B----------------------------------------------------------------------------------------------| 
G------------------9-------------------------9/11/9--------------------------------------------| 
D-11/9/11--11/9/11-9----------------11/9/11--9/11/9--------------------------------------------| 
A-11/9/11--11/9/11-7----------------11/9/11--7/9-/7--------------------------------------------| 
E-9-/7/9---9-/7/9-----9-7-9-7h9-0---9-/7/9-----------------------------------------------------| 

verse 2 
e----------------------------------------------------------------------------------------------| 
B----------------------------------------------------------------------------------------------| 
G------------------------------------------------11-11----11-----------------------------------| 
D--11-11----11-9-11----11-11----11----11-11-11---11-11----11----------11-11----11-11-----------| 
A--11-11----11-9-11----11-11----11----11-11-11---9--9-----9(5x)---7*--11-11----11-11-----------| 
E--9--9-----9--7-9-----9--9-----9-----9--9--9-------------------------9--9-----9--9------------| 

Chorus part 1 
e----------------------------------------------------------------------------------------------| 
B----------------------------------------------------------------------------------------------| 
G----------------------9------------9-11-9-----------------------------------------------------| 
D-11-11--9/11--11/9/11-9----11-11---9-11-9---11/9/11-------------------------------------------| 
A-11-11--9/11--11/9/11-7----11-11---7-9--7---11/9/11-------------------------------------------| 
E-9--9---7/9---9/-7/9-------9--9-------------9-/7/9--------------------------------------------| 

Chorus Part 2 
e----------------------------------------------------------------------------------------------| 
B----------------------------------------------------------------------------------------------| 
G----------------------9-11-9------------------------------------------------------------------| 
D-11-11-9-11---11-9-11-9-11-9---7---6----------------------------------------------------------| 
A-11-11-9-11---11-9-11-7-9--7---7---6----------------------------------------------------------| 
E-9--9--7-9----9--7-9-----------5---4----------------------------------------------------------| 

Intro 
e--------------------------------------------------------------------------------------------| 
B----------------------9---------------------------------------------------------------------| 
G--------------------9---12-11-9-------------------------------------------------------------| 
D---------------9-11-------------11-9--------------------------------------------------------| 
A-------9-10-11-----------------------11-10-9----------------4-------------------------------| 
E--/9-12---------------------------------------12-9-7-4-3-2-0--------------------------------| 

during the solo 
e----------------------------------------------------------------------------------------------| 
B----------------------------------------------------------------------------------------------| 
G--------11----------11--9---------------------------------------------------------------------| 
D--11----11----11----11--9---11----------------------------------------------------------------| 
A--11----9-----11----9---7---11----------------------------------------------------------------| 
E--9-----------9-------------9-----------------------------------------------------------------| 

Chorus part 1 
e----------------------------------------------------------------------------------------------| 
B----------------------------------------------------------------------------------------------| 
G----------------------9------------9-11-9-----------------------------------------------------| 
D-11-11--9/11--11/9/11-9----11-11---9-11-9---11/9/11-------------------------------------------| 
A-11-11--9/11--11/9/11-7----11-11---7-9--7---11/9/11-------------------------------------------| 
E-9--9---7/9---9/-7/9-------9--9-------------9-/7/9--------------------------------------------| 

Chorus Part 2 
e----------------------------------------------------------------------------------------------| 
B----------------------------------------------------------------------------------------------| 
G----------------------9-11-9------------------------------------------------------------------| 
D-11-11-9-11---11-9-11-9-11-9---7---6--7--6--7--6----------------------------------------------| 
A-11-11-9-11---11-9-11-7-9--7---7---6--7--6--7--6(3x)------------------------------------------| 
E-9--9--7-9----9--7-9-----------5---4--5--4--5--4----------------------------------------------| 

Intro 
e--------------------------------------------------------------------------------------------| 
B----------------------9---------------------------------------------------------------------| 
G--------------------9---12-11-9-------------------------------------------------------------| 
D---------------9-11-------------11-9--------------------------------------------------------| 
A-------9-10-11-----------------------11-10-9------------------------------------------------| 
E--/9-12---------------------------------------12-9-7-4-3-2-0--------------------------------| 

intro part 2(play 2x)- the second time I like to play with just the low E string 
e-------------------------------------------------------------------------------------------| 
B-------------------------------------------------------------------------------------------| 
G----------------------9---------------------------9-11-9-----------------------------------| 
D-11-11--9/11--11/9/11-9------------------11/9/11--9-11-9-----------------------------------| 
A-11-11--9/11--11/9/11-7------------------11/9/11--7-9--7-----------------------------------| 
E-9--9---7/9---9/-7/9-------9-7-9-7h9-0---9-/7/9--------------------------------------------| 

e----------------------------------------------------------------------| 
B----------------------------------------------------------------------| 
G----------------------------------------------------------------------| 
D-11-11--9/11--11-11--9/11---------------------------------------------| 
A-11-11--9/11--11-11--9/11---------------------------------------------| 
E-9--9---7/9---9--9---7/9----------------------------------------------| 

*-bend 
/-slide 
h- hammer-on 
  

top 5 | the pretty reckless
top rock alternativo
Outras músicas do artista letras do(a) The Pretty Reckless
Top cifras »Top artistas »
Petaxxon Comunicação Online
Cifras.com.br - Melhor e mais completo site de cifras e tablaturas do Brasil
Mais de 1 milhão de acordes de músicas cadastradas desde 2003
As informações contidas no nosso site são colaborações de seus usuários e podem conter erros, sendo assim, não nos responsabilizamos sobre nenhuma destas.
close
menos
mais
close
Cor dos acordes:

Cor da letra:

 

save
close
close
 
redimensionar