Cifras e Tablaturas
The Soulless

The Soulless

Earthbound

Cifras Cancelar Versão de Impressão Print

The Soulless - Earthbound

Tom: C

  • 0:00 / 0:00
  			


Tuning: Drop C (C G C F A D) 


Intro 
Guitar 1: 
D||-------------------------------------| 
A||-------------------------------------| 
F||------9---7h9-----9---9/10---10\9-5--| 
C||----7-----------7--------------------| x12 
G||--5-----5-----5-----5------5---------| 
C||-------------------------------------| 
     . .   .     . .   .      . 


Guitar 2: 
D||-------------------------------------------------------------------| 
A||-------------------------------------------------------------------| 
F||-------------------------------------------------------------------| 
C||--0~------------0~-------10~-------8~------------8~-------5~---7~--| 
G||--0~------------0~-------10~-------8~------------8~-------5~---7~--| 
C||--0~------------0~-------10~-------8~------------8~-------5~---7~--| 


D||---------------------------------------------------------------| 
A||---------------------------------------------------------------| 
F||---------------------------------------------------------------| 
C||---------------------------------------------------------------| 
G||---------------------------------------------------------------| 
C||--000------000-0-0----000-0----000-0-0-0----0000--00--0000-00--| 
     ...      ... . .    ... .    ... . . .    ....  ..  .... .. 

D||--------------------------------------------------------| 
A||--------------------------------------------------------| 
F||--------------------------------------------------------| 
C||--------------------------------------------------------| 
G||--------------------------------------------------------| 
C||--888--8--888------55555555--888--8--888------33333333--| 
     ...  .  ...      ........  ...  .  ...      ........ 

D||---------------------------------------------------------------| 
A||---------------------------------------------------------------| 
F||---------------------------------------------------------------| 
C||---------------------------------------------------------------| 
G||---------------------------------------------------------------| 
C||--000------000-0-0----000-0----000-0-0-0----0000--00--0000-00--| 
     ...      ... . .    ... .    ... . . .    ....  ..  .... .. 

D||--------------------------------------------------------| 
A||--------------------------------------------------------| 
F||--------------------------------------------------------| 
C||--------------------------------------------------------| 
G||--------------------------------------------------------| 
C||--888--8--888------55555555--888--8--888------33333333--| 
     ...  .  ...      ........  ...  .  ...      ........ 


Guitar 1: 
D||---------------------|---------------------| 
A||---------------------|---------------------| 
F||---------------------|---------------------| 
C||---------------------|---------------------| 
G||---------------------|---------------------| 
C||--0000------0000-----|--------00-------00--| 
     ....      ....              ..       .. 


Guitar 2: 
D||---------------------|---------------------| 
A||---------------------|---------------------| 
F||---------------------|---------------------| 
C||---------------------|---------------------| 
G||---------------------|---------------------| 
C||--------00-------00--|--0000------0000-----| 
           ..       ..     ....      .... 


Riff 1 
Guitar 1/2: 
D||--------------------------------------------------------------------------------| 
A||------------------------------------------------------10-11-10------------------| 
F||--7---------7-9-10-9---------9-10-12-10---------10-12-------------10-9----9-10--| 
C||---------------------------------------------------------------12------10-------| x2 
G||--------------------------------------------------------------------------------| 
C||----5555555----------7777777------------8888888---------------------------------| 
       .......          .......            ....... 


Guitar 1: 
D||--------------------------------------------------------------------------------| 
A||------------------------------------------------------10-11-10------------------| 
F||--7---------7-9-10-9---------9-10-12-10---------10-12-------------10-9----9-10--| 
C||---------------------------------------------------------------12------10-------| x2 
G||--------------------------------------------------------------------------------| 
C||----5555555----------7777777------------8888888---------------------------------| 
       .......          .......            ....... 


Guitar 2: 
D||-------------------------------------------------------------------------------------| 
A||-------------------------------------------------------------------------------------| 
F||---------------------------------------------------------10-12-10----10--------------| 
C||--8---------8-10-12-10---------10-12-14-12---------12-14----------12----14-10-10-12--| x2 
G||-------------------------------------------------------------------------------------| 
C||----5555555------------7777777-------------8888888-----------------------------------| 
       .......            .......             ....... 


Riff 2 
Guitar 1/2: 
D||-------------------------------------------------------------------------| 
A||--------------------------------10-8-------------------------------------| 
F||--7-7---7---------------------9-------------------10-9-9-9-10-9----------| 
C||------------8-----5-7-5------------------8-7----------------------10/12--| x2 
G||--------------------------8------------------10-8------------------------| 
C||------0---0---0-0-------0---0--------0-0------------------------0--------| 
         .   .   . .       .   .        . .                        . 


Riff 3 
Guitar 1/2: 
D||-----------------------------------------------------| 
A||-----------------------------------------------------| 
F||-----------------------------------------------------| 
C||-------8-5----8-5--------------8-5----10-7----10/12--| 
G||-----------4------4----------------4-------8---------| 
C||--000----------------000--000------------------------| 
     ...                ...  ... 

D||-----------------------------------------------------| 
A||-----------------------------------------------------| 
F||-----------------------------------------------------| 
C||-------8-5----8-5---------8-5----10-7----10/12-------| x2 
G||-----------4------4-----------4-------8--------------| 
C||--000----------------000------------------------000--| 
     ...                ...                        ... 

D||-----------------------------------------------| 
A||-----------------------------------------------| 
F||--10-10-10-10-10-10-10-10-10-10-10-10-9-9-9-9--| 
C||--x--x--x--x--x--x--x--x--x--x--x--x--x-x-x-x--| 
G||--8--8--8--8--8--8--8--8--8--8--8--8--7-7-7-7--| 
C||-----------------------------------------------| 



Chorus 
Guitar 1: 
D||---------------------------------------------------| 
A||---------------------------------------------------| 
F||--------14----15-14----------14----15-14-----------| 
C||--14-15----15-------15-14-15----15-------15-10/12--| 
G||---------------------------------------------------| 
C||---------------------------------------------------| 


D||---------------------------------------------------| 
A||---------------------------------------------------| 
F||--12----------------12-14-14-15-14-12-14-12--------| 
C||-----15-12-14-14-15-------------------------14-15--| x4 
G||---------------------------------------------------| 
C||---------------------------------------------------| 


Guitar 2: 
D||-----------------------------------------------------------------------------------| 
A||-----------------------------------------------------------------------------------| 
F||-----------------------------------------------------------------------------------| 
C||--5-5-5-5-5-5-5-5-5-5-5-5-7-7-7-7-10-10-10-10-10-10-10-10-10-10-10-10-10-10-10-10--| 
G||--5-5-5-5-5-5-5-5-5-5-5-5-7-7-7-7-10-10-10-10-10-10-10-10-10-10-10-10-10-10-10-10--| 
C||--5-5-5-5-5-5-5-5-5-5-5-5-7-7-7-7-10-10-10-10-10-10-10-10-10-10-10-10-10-10-10-10--| 


D||-----------------------------------------------------------------------------------| 
A||-----------------------------------------------------------------------------------| 
F||-----------------------------------------------------------------------------------| 
C||--8-8-8-8-8-8-8-8-8-8-8-8-8-8-8-8-10-10-10-10-10-10-10-10-10-10-10-10-10-10-10-10--| x2 
G||--8-8-8-8-8-8-8-8-8-8-8-8-8-8-8-8-10-10-10-10-10-10-10-10-10-10-10-10-10-10-10-10--| 
C||--8-8-8-8-8-8-8-8-8-8-8-8-8-8-8-8-10-10-10-10-10-10-10-10-10-10-10-10-10-10-10-10--| 



Riff 1 
Guitar 1: 
D||-------------------------------------------------------------------------| 
A||--------------------------------10-8-------------------------------------| 
F||--7-7---7---------------------9-------------------10-9-9-9-10-9----------| 
C||------------8-----5-7-5------------------8-7----------------------10/12--| x2 
G||--------------------------8------------------10-8------------------------| 
C||------0---0---0-0-------0---0--------0-0------------------------0--------| 
         .   .   . .       .   .        . .                        . 

Guitar 2: 
D||------------------------------------------------------------------------| 
A||------------------------------------10-8--------------------------------| 
F||--10-10---10---7------------------9------------------7-5-5-5-7-5--------| 
C||---------------------8-10-8---7--------------5---------------------7/8--| x2 
G||-----------------------------------------------8-7-5--------------------| 
C||--------0----0---0-0--------0---0--------0-0---------------------0------| 
           .    .   . .        .   .        . .                     . 


Riff 3 
Guitar 1/2: 
D||-----------------------------------------------------| 
A||-----------------------------------------------------| 
F||-----------------------------------------------------| 
C||-------8-5----8-5--------------8-5----10-7----10/12--| 
G||-----------4------4----------------4-------8---------| 
C||--000----------------000--000------------------------| 
     ...                ...  ... 

D||-----------------------------------------------------| 
A||-----------------------------------------------------| 
F||-----------------------------------------------------| 
C||-------8-5----8-5---------8-5----10-7----10/12-------| x2 
G||-----------4------4-----------4-------8--------------| 
C||--000----------------000------------------------000--| 
     ...                ...                        ... 



Riff 1 
Guitar 1: 
D||--------------------------------------------------------------------------------| 
A||------------------------------------------------------10-11-10------------------| 
F||--7---------7-9-10-9---------9-10-12-10---------10-12-------------10-9----9-10--| 
C||---------------------------------------------------------------12------10-------| x2 
G||--------------------------------------------------------------------------------| 
C||----5555555----------7777777------------8888888---------------------------------| 
       .......          .......            ....... 


Guitar 2: 
D||-------------------------------------------------------------------------------------| 
A||-------------------------------------------------------------------------------------| 
F||---------------------------------------------------------10-12-10----10--------------| 
C||--8---------8-10-12-10---------10-12-14-12---------12-14----------12----14-10-10-12--| x2 
G||-------------------------------------------------------------------------------------| 
C||----5555555------------7777777-------------8888888-----------------------------------| 
       .......            .......             ....... 



Chorus 
Guitar 1: 
D||---------------------------------------------------| 
A||---------------------------------------------------| 
F||--------14----15-14----------14----15-14-----------| 
C||--14-15----15-------15-14-15----15-------15-10/12--| 
G||---------------------------------------------------| 
C||---------------------------------------------------| 


D||---------------------------------------------------| 
A||---------------------------------------------------| 
F||--12----------------12-14-14-15-14-12-14-12--------| 
C||-----15-12-14-14-15-------------------------14-15--| x4 
G||---------------------------------------------------| 
C||---------------------------------------------------| 


Guitar 2: 
D||-----------------------------------------------------------------------------------| 
A||-----------------------------------------------------------------------------------| 
F||-----------------------------------------------------------------------------------| 
C||--5-5-5-5-5-5-5-5-5-5-5-5-7-7-7-7-10-10-10-10-10-10-10-10-10-10-10-10-10-10-10-10--| 
G||--5-5-5-5-5-5-5-5-5-5-5-5-7-7-7-7-10-10-10-10-10-10-10-10-10-10-10-10-10-10-10-10--| 
C||--5-5-5-5-5-5-5-5-5-5-5-5-7-7-7-7-10-10-10-10-10-10-10-10-10-10-10-10-10-10-10-10--| 


D||-----------------------------------------------------------------------------------| 
A||-----------------------------------------------------------------------------------| 
F||-----------------------------------------------------------------------------------| 
C||--8-8-8-8-8-8-8-8-8-8-8-8-8-8-8-8-10-10-10-10-10-10-10-10-10-10-10-10-10-10-10-10--| x2 
G||--8-8-8-8-8-8-8-8-8-8-8-8-8-8-8-8-10-10-10-10-10-10-10-10-10-10-10-10-10-10-10-10--| 
C||--8-8-8-8-8-8-8-8-8-8-8-8-8-8-8-8-10-10-10-10-10-10-10-10-10-10-10-10-10-10-10-10--| 



Riff 4 
Guitar 1: 
D||---------------------------------------------| 
A||---------------------------------------------| 
F||----9h10---10/12---12h14---14h15---15p14-----| 
C||--0------0-------0-------0-------0-------15--| x8 
G||---------------------------------------------| 
C||---------------------------------------------| 
     .      .       .       .       . 


Guitar 2: 
D||--------------------------------------------| 
A||--------------------------------------------| 
F||--------------------------------------------| 
C||--0~--------0~--------8~--------8~------5~--| x2 
G||--0~--------0~--------8~--------8~------5~--| 
C||--0~--------0~--------8~--------8~------5~--| 



Outro 
Guitar 1: 
D||---------------------------------------------| 
A||---------------------------------------------| 
F||----9h10---10/12---12h14---14h15---15-14-----| 
C||--0------0-------0-------0-------0-------15--| (Repeat until fade out) 
G||---------------------------------------------| 
C||---------------------------------------------| 
     .      .       .       .       . 


Guitar 2: 
D||-----------------------------------------| 
A||-----------------------------------------| 
F||----5h7---7h9---9h10---10h12---12-10-----| 
C||--0-----0-----0------0-------0-------12--| (Repeat until fade out) 
G||-----------------------------------------| 
C||-----------------------------------------| 
     .     .     .      .       . 


Guitar 3 (Dub): 
D||------------------------------------------------------| 
A||------------------------------------------------------| 
F||------------------------------------------------------| 
C||------------------------------------------------------| 
G||------------------------------------------------------| 
C||--000----0-0-0----000--000--000----0-0-0----000--000--| 
     ...    . . .    ...  ...  ...    . . .    ...  ... 

D||------------------------------------------------------| 
A||------------------------------------------------------| 
F||------------------------------------------------------| 
C||------------------------------------------------------| (Repeat until fade out) 
G||------------------------------------------------------| 
C||--888----8-8-8----888--888--888----8-8-8----55555555--| 
     ...    . . .    ...  ...  ...    . . .    ........ 



Tablature Legend 
---------------- 
 h   hammer-on 
 p   pull-off 
 b   bend 
 pb  pre-bend 
 r   release bend 
 ~   hold / vibrato 
 .   palm mute 
 /   slide up 
 \   slide down 
 *   pinch harmonic 
 '   natural harmonic 
 x   mute note 
 T   tap 
    	

enviado porenviado por: VsWorld
cifra enviadaCorrigida por: sem correções
logo top cifrasComente
ico música do artistaMúsicas deste artista
ico curtiuCurtiu?
ico destaqueDestaque
Petaxxon Comunicação Online

Cifras.com.br - Melhor e mais completo site de cifras e tablaturas do Brasil Mais de 1 milhão de acordes de músicas cadastradas desde 2003
As informações contidas no nosso site são colaborações de seus usuários e podem conter erros, sendo assim, não nos responsabilizamos sobre nenhuma destas.

close
menos
mais
close
Cor dos acordes:

Cor da letra:

close
Alinhar acordes a direita Alinhar acordes a esquerda Alinhar acordes em baixo Alinhar acordes no topo
close
  Mostrar todos os acordes Esconder acordes muito fáceis Esconder acordes fáceis Esconder acordes intermediários
redimensionar
glossário