Cifras e Tablaturas
The Spin Wires

The Spin Wires

Reckless

Cifras Cancelar Versão de Impressão
cifras

The Spin Wires - Reckless

fixar na tela  
Exibindo: vídeo-aula ver clipes redimensionar
  
Intro is palm muted except the power chords 


D#|---------------------------------------------------------------------------| 
A#|---------------------------------------------------------------------------| 
F#|---------------------------------------------------------------------------| 
C#|---------------------------5-5-5-------------------------------------------| 
G#|-3-0-3-0-3-7-7-7-3-0-3-0-3-7-7-7-------------------------------------------| 
D#|---------------------------------------------------------------------------| 


Bass plays during the vocal parts. Repeat the intro until the Chorus. 


Chorus - has a strumming pattern that is "Down Up Up Up Down Up Down" 


D#|---------------------------------------------------------------------------| 
A#|---------------------------------------------------------------------------| 
F#|-5-5-5-5-5-5-------------5-5-5-5-5-5---------------------------------------| 
C#|-5-5-5-5-5-5-7-7-7-7-7-7-5-5-5-5-5-5---------------------------------------| 
G#|-7-7-7-7-7-7-7-7-7-7-7-7-3-3-3-3-3-3---------------------------------------| 
D#|-------------5-5-5-5-5-5-------------0-3-5-7-------------------------------| 


End Chorus 


D#|---------------------------------------------------------------------------| 
A#|---------------------------------------------------------------------------| 
F#|---------------------------------------------------------------------------| 
C#|2-2-2------2-0-------------------------------------------------------------| 
G#|2-2-2----------2-0---------------------------------------------------------| 
D#|0-0-0--------------3-2-0---------------------------------------------------| 


Second verse bassically matches the intro with different pauses. Add this power chord. 


D#|---------------------------------------------------------------------------| 
A#|---------------------------------------------------------------------------| 
F#|-5-------------------------------------------------------------------------| 
C#|-5-------------------------------------------------------------------------| 
G#|-7-------------------------------------------------------------------------| 
D#|---------------------------------------------------------------------------| 






Not 100% on the solo, so won't post that. 
  

top 5 | the spin wires
top rock'n roll
Outras músicas do artista letras do(a) The Spin Wires
Top cifras »Top artistas »
Petaxxon Comunicação Online
Cifras.com.br - Melhor e mais completo site de cifras e tablaturas do Brasil
Mais de 1 milhão de acordes de músicas cadastradas desde 2003
As informações contidas no nosso site são colaborações de seus usuários e podem conter erros, sendo assim, não nos responsabilizamos sobre nenhuma destas.
close
menos
mais
close
Cor dos acordes:

Cor da letra:

 

save
close
close
 
redimensionar