Cifras e Tablaturas
The Staves

The Staves

Let Me Down

Cifras Cancelar Versão de Impressão
cifras

The Staves - Let Me Down

fixar na tela  
Exibindo: vídeo-aula ver clipes redimensionar
  
Tuning: DADEAD 

Intro 
D|-----------------------------|-----------------------------| 
A|-5-4-----5-4-----5-4---5--4--|-5-4-----5-4-----5-4---5--4--| 
E|-----5-------5-------5--5--5-|-----5-------5-------5--5--5-| 
D|-------0-------0-------------0-------0-------0-------------| 
A|-----------------------------|-----------------------------| 
D|0-0-0-0-0-0-0-0-0-0-0-0--0--0|5-5-5-5-5-5-5-5-5-5-5-5--5--5| 

Verse 
D|-----------------------------|-----------------------------| 
A|-5-4-----5-4-----5-4---5--4--|-5-4-----5-4-----5-4---5--4--| 
E|-----5-------5-------5--5--5-|-----5-------5-------5--5--5-| 
D|-------0-------0-------------0-------0-------0-------------| 
A|-----------------------------|-----------------------------| 
D|0-0-0-0-0-0-0-0-0-0-0-0--0--0|5-5-5-5-5-5-5-5-5-5-5-5--5--5|  (x2) 

Pre-Chorus 
D|-----------------------------|-----------------------------| 
A|-5---5---5---5---5-4-----5---|-5---5---5---5---5-4-----5---| 
E|---5---5---5---5-----5-----5-|---5---5---5---5-----5-----5-| 
D|-----------------------0-----0-----------------------0-----| 
A|-----------------------------|-----------------------------| 
D|0-0-0-0-0-0-0-0-0-0-0-0-0-0-0|5-5-5-5-5-5-5-5-5-5-5-5-5-5-5| 

Chorus 
D|-6-6---8-4-4----6-6---8-4-4--|-0-0---0-0-0----0-0---0-0-0--| 
A|-0-0---0-0-0----0-0---0-0-0--|-4-4---0-0-0----4-4---0-0-0--| 
E|-4-4---6-2-2----4-4---6-2-2--|-0-0---5-5-5----0-0---5-5-5--| 
D|-0-0---0-0-0----0-0---0-0-0--|-0-0---0-0-0----0-0---0-0-0--| 
A|-----------------------------|-5-5---5-5-5----5-5---5-5-5--| 
D|-----------------------------|-5-5---5-5-5----5-5---5-5-5--| 

D|-6-6---8-4-4----6-6---8-4-4--|-x-x---x-x---x-x---x-x---x-x-| 
A|-0-0---0-0-0----0-0---0-0-0--|-5-5---5-5---5-5---5-5---5-5-| 
E|-4-4---6-2-2----4-4---6-2-2--|-5-5---5-5---5-5---5-5---5-5-| 
D|-0-0---0-0-0----0-0---0-0-0--|-0-0---0-0---0-0---0-0---0-0-| 
A|-----------------------------|-5-5---5-5---5-5---5-5---5-5-| 
D|-----------------------------|-5-5---5-5---5-5---5-5---5-5-| 

Instrumental 
D|-----------------------------|-----------------------------| 
A|-5-4-----5-4-----5-4---5--4--|-5-4-----5-4-----5-4---5--4--| 
E|-----5-------5-------5--5--5-|-----5-------5-------5--5--5-| 
D|-------0-------0-------------0-------0-------0-------------| 
A|-----------------------------|-----------------------------| 
D|0-0-0-0-0-0-0-0-0-0-0-0--0--0|5-5-5-5-5-5-5-5-5-5-5-5--5--5| 

Verse 
D|-----------------------------|-----------------------------| 
A|-5-4-----5-4-----5-4---5--4--|-5-4-----5-4-----5-4---5--4--| 
E|-----5-------5-------5--5--5-|-----5-------5-------5--5--5-| 
D|-------0-------0-------------0-------0-------0-------------| 
A|-----------------------------|-----------------------------| 
D|0-0-0-0-0-0-0-0-0-0-0-0--0--0|5-5-5-5-5-5-5-5-5-5-5-5--5--5|  (x2) 

Pre-Chorus 
D|-----------------------------|-----------------------------| 
A|-5---5---5---5---5-4-----5---|-5---5---5---5---5-4-----5---| 
E|---5---5---5---5-----5-----5-|---5---5---5---5-----5-----5-| 
D|-----------------------0-----0-----------------------0-----| 
A|-----------------------------|-----------------------------| 
D|0-0-0-0-0-0-0-0-0-0-0-0-0-0-0|5-5-5-5-5-5-5-5-5-5-5-5-5-5-5| 

Chorus 
D|-6-6---8-4-4----6-6---8-4-4--|-0-0---0-0-0----0-0---0-0-0--| 
A|-0-0---0-0-0----0-0---0-0-0--|-4-4---0-0-0----4-4---0-0-0--| 
E|-4-4---6-2-2----4-4---6-2-2--|-0-0---5-5-5----0-0---5-5-5--| 
D|-0-0---0-0-0----0-0---0-0-0--|-0-0---0-0-0----0-0---0-0-0--| 
A|-----------------------------|-5-5---5-5-5----5-5---5-5-5--| 
D|-----------------------------|-5-5---5-5-5----5-5---5-5-5--| 

D|-6-6---8-4-4----6-6---8-4-4--|-x-x---x-x---x-x---x-x---x-x-| 
A|-0-0---0-0-0----0-0---0-0-0--|-5-5---5-5---5-5---5-5---5-5-| 
E|-4-4---6-2-2----4-4---6-2-2--|-5-5---5-5---5-5---5-5---5-5-| 
D|-0-0---0-0-0----0-0---0-0-0--|-0-0---0-0---0-0---0-0---0-0-| 
A|-----------------------------|-5-5---5-5---5-5---5-5---5-5-| 
D|-----------------------------|-5-5---5-5---5-5---5-5---5-5-| 


************************************ 

| x  Dead note 

************************************ 
  

top 5 | the staves
top rock alternativo
Outras músicas do artista letras do(a) The Staves
Top cifras »Top artistas »
Petaxxon Comunicação Online
Cifras.com.br - Melhor e mais completo site de cifras e tablaturas do Brasil
Mais de 1 milhão de acordes de músicas cadastradas desde 2003
As informações contidas no nosso site são colaborações de seus usuários e podem conter erros, sendo assim, não nos responsabilizamos sobre nenhuma destas.
close
menos
mais
close
Cor dos acordes:

Cor da letra:

 

save
close
close
 
redimensionar