Cifras e Tablaturas
The Strokes

The Strokes

Drag Queen

Cifras Cancelar Versão de Impressão
cifras

The Strokes - Drag Queen

fixar na tela  
Exibindo: vídeo-aula ver clipes redimensionar

Tom:

  
Intro 

Bass 
e|---------------------------------------------------------------------------| 
B|---------------------------------------------------------------------------| 
G|---------------------------------------------------------------------------| 
D|---------------------------------------------------------------------------| 
A|--3-3-3-3-3-3-3-3-3-3-3-3-3-3-3-3---5-5-5-5-5-5-5-5-5-5-5-5-5-5-5-5--------| 
E|---------------------------------------------------------------------------| 

Riff 1 
e|---------------------------------------------------------------------------| 
B|---------------------------------------------------------------------------| 
G|---------------------------------------------------------------------------| 
D|---------------------------------------------------------------------------| 
A|---5--3----5--3------------5--3----5--3------------------------------------| 
E|-------------------5-----------------------5-------------------------------| 


Verse 

Riff 2 
e|--------15----------15------------17---------17----------------------------| 
B|---13----------13------------15---------15---------------------------------| 
G|---------------------------------------------------------------------------| 
D|---------------------------------------------------------------------------| 
A|---------------------------------------------------------------------------| 
E|---------------------------------------------------------------------------| 


Chorus 

Guitar 1 
e|---------------------------------------------------------------------------| 
B|---11----------8----8h10p8---6----5---------10---8---6----6-----5--6-------| 
G|-------9--10---------------------------------------------------------------| 
D|---------------------------------------------------------------------------| 
A|---------------------------------------------------------------------------| 
E|---------------------------------------------------------------------------|2x 

Guitar 2 
e|---------------------------------------------------------------------------| 
B|---------------------------------------------------------------------------| 
G|---------------------------------------------------------------------------| 
D|---------------------------------------------------------------------------| 
A|---------------------------------3-3-3-3-3-3-3-3-3-3-3-3-3-3-3-3-----------| 
E|-6-6-6-6-6-6-6-6-6-6-6-6-6-6-6-6-------------------------------------------| 

e|---------------------------------------------------------------------------| 
B|---------------------------------------------------------------------------| 
G|---------------------------------------------------------------------------| 
D|---------------------------------------------------------------------------| 
A|-5-5-5-5-5-5-5-5-5-5-5-5-5-5-5-5----8-8-8-8-8-8-8-8-8-8-8-8-8-8-8-8--------| 
E|---------------------------------------------------------------------------| 

e|---------------------------------------------------------------------------| 
B|---------------------------------------------------------------------------| 
G|---------------------------------------------------------------------------| 
D|---------------------------------------------------------------------------| 
A|---------------------------------3-3-3-3-3-3-3-3-3-3-3-3-3-3-3-3-----------| 
E|-6-6-6-6-6-6-6-6-6-6-6-6-6-6-6-6-------------------------------------------| 

e|---------------------------------------------------------------------------| 
B|---------------------------------------------------------------------------| 
G|---------------------------------------------------------------------------| 
D|---------------------------------------------------------------------------| 
A|-5-5-5-5-5-5-5-5-5-5-5-5-5-5-5-5----5-5-5-5-5-5-5-5-5-5-5-5-5-5-5-5--------| 
E|---------------------------------------------------------------------------| 


Interlude 

Bass, Riff 1, followed by Riff 2: 

Bass 
e|---------------------------------------------------------------------------| 
B|---------------------------------------------------------------------------| 
G|---------------------------------------------------------------------------| 
D|---------------------------------------------------------------------------| 
A|--3-3-3-3-3-3-3-3-3-3-3-3-3-3-3-3---5-5-5-5-5-5-5-5-5-5-5-5-5-5-5-5--------| 
E|---------------------------------------------------------------------------| 

Riff 1 
e|---------------------------------------------------------------------------| 
B|---------------------------------------------------------------------------| 
G|---------------------------------------------------------------------------| 
D|---------------------------------------------------------------------------| 
A|---5--3----5--3------------5--3----5--3------------------------------------| 
E|-------------------5-----------------------5-------------------------------| 


Verse 

Riff 2 
e|--------15----------15------------17---------17----------------------------| 
B|---13----------13------------15---------15---------------------------------| 
G|---------------------------------------------------------------------------| 
D|---------------------------------------------------------------------------| 
A|---------------------------------------------------------------------------| 
E|---------------------------------------------------------------------------| 


2:16 

e|10-----6-6-------12--8----15-----------12--6-6----12--8-----15---13--------| 
B|--------6---------------------13------------6------------------------------| 
G|---------------------------------------------------------------------------| 
D|---------------------------------------------------------------------------| 
A|---------------------------------------------------------------------------| 
E|---------------------------------------------------------------------------| 

e|--8---10-----8---10----8----10----8---10-----------------------------------| 
B|----6----6-----6----6----6-----6----6----6---------------------------------| 
G|---------------------------------------------------------------------------| 
D|---------------------------------------------------------------------------| 
A|---------------------------------------------------------------------------| 
E|---------------------------------------------------------------------------| 

e|--10----12------10----12----10---12----10---12-----------------------------| 
B|---------------------------------------------------------------------------| 
G|-----10----10------10---10----10---10----10---10---------------------------| 
D|---------------------------------------------------------------------------| 
A|---------------------------------------------------------------------------| 
E|---------------------------------------------------------------------------| 

e|--8---10-----8---10----8----10----8---10-----------------------------------| 
B|----6----6-----6----6----6-----6----6----6---------------------------------| 
G|---------------------------------------------------------------------------| 
D|---------------------------------------------------------------------------| 
A|---------------------------------------------------------------------------| 
E|---------------------------------------------------------------------------| 


2:39 

e|10-----6-6-------12--8----15-----------12--6-6----12--8-----15---13--------| 
B|--------6---------------------13------------6------------------------------| 
G|---------------------------------------------------------------------------| 
D|---------------------------------------------------------------------------| 
A|---------------------------------------------------------------------------| 
E|---------------------------------------------------------------------------| 

e|--8---10-----8---10----8----10----8---10-----------------------------------| 
B|----6----6-----6----6----6-----6----6----6---------------------------------| 
G|---------------------------------------------------------------------------| 
D|---------------------------------------------------------------------------| 
A|---------------------------------------------------------------------------| 
E|---------------------------------------------------------------------------| 

e|---7---8-----7---8----7---8----7---8---------------------------------------| 
B|-----5---5-----5---5----5---5----5---5-------------------------------------| 
G|---------------------------------------------------------------------------| 
D|---------------------------------------------------------------------------| 
A|---------------------------------------------------------------------------| 
E|---------------------------------------------------------------------------| 

e|--8---10-----8---10----8----10----8---10-----------------------------------| 
B|----6----6-----6----6----6-----6----6----6---------------------------------| 
G|---------------------------------------------------------------------------| 
D|---------------------------------------------------------------------------| 
A|---------------------------------------------------------------------------| 
E|---------------------------------------------------------------------------| 

e|--0---3----0---3------1---3----1---3---------------------------------------| 
B|----1---1----1---1------1---1----1---1-------------------------------------| 
G|---------------------------------------------------------------------------| 
D|---------------------------------------------------------------------------| 
A|---------------------------------------------------------------------------| 
E|---------------------------------------------------------------------------| 

e|--5---6----5---6----5---6----5---6-----------------------------------------| 
B|----6---6----6---6----6---6----6---6---------------------------------------| 
G|---------------------------------------------------------------------------| 
D|---------------------------------------------------------------------------| 
A|---------------------------------------------------------------------------| 
E|---------------------------------------------------------------------------| 


Chorus 

Guitar 1 
e|---------------------------------------------------------------------------| 
B|---11----------8----8h10p8---6----5---------10---8---6----6-----5--6-------| 
G|-------9--10---------------------------------------------------------------| 
D|---------------------------------------------------------------------------| 
A|---------------------------------------------------------------------------| 
E|---------------------------------------------------------------------------|2x 

Guitar 2 
e|---------------------------------------------------------------------------| 
B|---------------------------------------------------------------------------| 
G|---------------------------------------------------------------------------| 
D|---------------------------------------------------------------------------| 
A|---------------------------------3-3-3-3-3-3-3-3-3-3-3-3-3-3-3-3-----------| 
E|-6-6-6-6-6-6-6-6-6-6-6-6-6-6-6-6-------------------------------------------| 

e|---------------------------------------------------------------------------| 
B|---------------------------------------------------------------------------| 
G|---------------------------------------------------------------------------| 
D|---------------------------------------------------------------------------| 
A|-5-5-5-5-5-5-5-5-5-5-5-5-5-5-5-5----8-8-8-8-8-8-8-8-8-8-8-8-8-8-8-8--------| 
E|---------------------------------------------------------------------------| 


Outro 

3:48 
e|---------------------------------------------------------------------------| 
B|---------8-----------------------------------------------------------------| 
G|-----10-----10-9-10--------------------------------------------------------| 
D|---------------------------------------------------------------------------| 
A|---------------------------------------------------------------------------| 
E|---------------------------------------------------------------------------|x12 


Last Part of Guitar 2 Chorus 

e|---------------------------------------------------------------------------| 
B|---------------------------------------------------------------------------| 
G|---------------------------------------------------------------------------| 
D|---------------------------------------------------------------------------| 
A|---------------------------------3-3-3-3-3-3-3-3-3-3-3-3-3-3-3-3-----------| 
E|-6-6-6-6-6-6-6-6-6-6-6-6-6-6-6-6-------------------------------------------| 

e|---------------------------------------------------------------------------| 
B|---------------------------------------------------------------------------| 
G|---------------------------------------------------------------------------| 
D|---------------------------------------------------------------------------| 
A|-5-5-5-5-5-5-5-5-5-5-5-5-5-5-5-5----5-5-5-5-5-5-5-5-5-5-5-5-5-5-5-5--------| 
E|---------------------------------------------------------------------------| 


4:12 

Bass 
e|---------------------------------------------------------------------------| 
B|---------------------------------------------------------------------------| 
G|---------------------------------------------------------------------------| 
D|---------------------------------------------------------------------------| 
A|--5-5-5-5-5-5-5-5-5-5-5-5-5-5-5-5-5-5-5-5-5-5-5-5-5-5-5-5-5-5-5-5----------| 
E|---------------------------------------------------------------------------| 

Guitar 
e|--------17----------17------------17---------17----------------------------| 
B|---15----------15------------15---------15---------------------------------| 
G|---------------------------------------------------------------------------| 
D|---------------------------------------------------------------------------| 
A|---------------------------------------------------------------------------| 
E|---------------------------------------------------------------------------| 

Bass ends on 
e|---------------------------------------------------------------------------| 
B|---------------------------------------------------------------------------| 
G|---------------------------------------------------------------------------| 
D|---------------------------------------------------------------------------| 
A|--3------------------------------------------------------------------------| 
E|---------------------------------------------------------------------------| 

Guitar 
e|---------------------------------------------------------------------------| 
B|--13-----------------------------------------------------------------------| 
G|---------------------------------------------------------------------------| 
D|---------------------------------------------------------------------------| 
A|---------------------------------------------------------------------------| 
E|---------------------------------------------------------------------------| 



************************************ 

| h  Hammer-on 
| p  Pull-off 

************************************ 
  

top 5 | the strokes
top rock'n roll
Outras músicas do artista letras do(a) The Strokes
Top cifras »Top artistas »
Petaxxon Comunicação Online
Cifras.com.br - Melhor e mais completo site de cifras e tablaturas do Brasil
Mais de 1 milhão de acordes de músicas cadastradas desde 2003
As informações contidas no nosso site são colaborações de seus usuários e podem conter erros, sendo assim, não nos responsabilizamos sobre nenhuma destas.
close
menos
mais
close
Cor dos acordes:

Cor da letra:

 

save
close
close
 
redimensionar