Cifras e Tablaturas
The Temperance Movement

The Temperance Movement

Three Bulleits

Cifras Cancelar Versão de Impressão
cifras

The Temperance Movement - Three Bulleits

fixar na tela  
Exibindo: vídeo-aula ver clipes redimensionar

Tom:

  
Intro 

e|----------| 
B|----------| 
G|--9-----9-| 
D|2-9---2-9-| 
A|2-7---2-7-| 
E|0-----0---| 

e|--------------------------|--------------------------| 
B|--------------------------|--------------------------| 
G|9-9-----------------4-----|9-9-----------------4-----| 
D|9-9-9-9-9-7-7-7-5-5-5-5-5-|9-9-9-9-9-7-7-7-5-5-5-5-5-| 
A|7-7-9-9-9-7-7-7-5-5-5-5-5-|7-7-9-9-9-7-7-7-5-5-5-5-5-| 
E|----7-7-7-5-5-5-3-3-3-3-3-|----7-7-7-5-5-5-3-3-3-3-3-| 


Verse 

e|--------------------------|--------------------------| 
B|--------------------------|--------------------------| 
G|9-9-----------------4-----|9-9-----------------4-----| 
D|9-9-9-9-9-7-7-7-5-5-5-5-5-|9-9-9-9-9-7-7-7-5-5-5-5-5-| 
A|7-7-9-9-9-7-7-7-5-5-5-5-5-|7-7-9-9-9-7-7-7-5-5-5-5-5-| 
E|----7-7-7-5-5-5-3-3-3-3-3-|----7-7-7-5-5-5-3-3-3-3-3-| 

I ain't saying more than you've been told 
Got high on information bought and sold 
I need a window where I won't get fooled again 

e|--------------------------|--------------------------| 
B|--------------------------|--------------------------| 
G|9-9-----------------4-----|9-9-----------------4-----| 
D|9-9-9-9-9-7-7-7-5-5-5-5-5-|9-9-9-9-9-7-7-7-5-5-5-5-5-| 
A|7-7-9-9-9-7-7-7-5-5-5-5-5-|7-7-9-9-9-7-7-7-5-5-5-5-5-| 
E|----7-7-7-5-5-5-3-3-3-3-3-|----7-7-7-5-5-5-3-3-3-3-3-| 

So you wonder where the world has gone 
A sad heart feeling on a setting sun 
Get in line with the rest for your daily bread 

Pre-Chorus 

e|--------------------|--------------------|--------------------|--------------------| 
B|--------------------|--------------------|--------------------|--------------------| 
G|--------------------|--------------------|--------------------|--------------------| 
D|5/7-7-7-7-7-7-7-7-5-|5/7-7-7-7-7-7-7-7-5-|5/7-7-7-7-7-7-7-7-5-|5/7-7-7-7-7-7-7-7-5-| 
A|5/7-7-7-7-7-7-7-7-5-|5/7-7-7-7-7-7-7-7-5-|5/7-7-7-7-7-7-7-7-5-|5/7-7-7-7-7-7-7-7-5-| 
E|3/5-5-5-5-5-5-5-5-3-|3/5-5-5-5-5-5-5-5-3-|3/5-5-5-5-5-5-5-5-3-|3/5-5-5-5-5-5-5-5-3-| 

Crossed hearts and immoral lies 
Genuflecting all the ones you despise 
Three bulleits in the morning sun 
Dust clouds gonna cover everyone I said 

Chorus 

e|--------------------------|--------------------------| 
B|--------------------------|--------------------------| 
G|9-9-----------------4-----|9-9-----------------4-----| 
D|9-9-9-9-9-7-7-7-5-5-5-5-5-|9-9-9-9-9-7-7-7-5-5-5-5-5-| 
A|7-7-9-9-9-7-7-7-5-5-5-5-5-|7-7-9-9-9-7-7-7-5-5-5-5-5-| 
E|----7-7-7-5-5-5-3-3-3-3-3-|----7-7-7-5-5-5-3-3-3-3-3-| 

Hey, hey, hey, hey 
Hey, hey, hey 
Come on! 

Verse 

I paid silver at the wailing wall 
Received no answer but I heard you calling 
There ain't never been a right when it's all so wrong 
Yes 

Pre-Chorus 

e|--------------------|--------------------|--------------------|--------------------| 
B|--------------------|--------------------|--------------------|--------------------| 
G|--------------------|--------------------|--------------------|--------------------| 
D|5/7-7-7-7-7-7-7-7-5-|5/7-7-7-7-7-7-7-7-5-|5/7-7-7-7-7-7-7-7-5-|5/7-7-7-7-7-7-7-7-5-| 
A|5/7-7-7-7-7-7-7-7-5-|5/7-7-7-7-7-7-7-7-5-|5/7-7-7-7-7-7-7-7-5-|5/7-7-7-7-7-7-7-7-5-| 
E|3/5-5-5-5-5-5-5-5-3-|3/5-5-5-5-5-5-5-5-3-|3/5-5-5-5-5-5-5-5-3-|3/5-5-5-5-5-5-5-5-3-| 

Crossed hearts and immoral lies 
Genuflecting all the ones you despise 
Three bulleits in the morning sun 
Dust clouds gonna cover everyone I said 

Chorus 

e|--------------------------|--------------------------| 
B|--------------------------|--------------------------| 
G|9-9-----------------4-----|9-9-----------------4-----| 
D|9-9-9-9-9-7-7-7-5-5-5-5-5-|9-9-9-9-9-7-7-7-5-5-5-5-5-| 
A|7-7-9-9-9-7-7-7-5-5-5-5-5-|7-7-9-9-9-7-7-7-5-5-5-5-5-| 
E|----7-7-7-5-5-5-3-3-3-3-3-|----7-7-7-5-5-5-3-3-3-3-3-| 

Hey, hey, hey, hey 
Hey, hey,hey 
Come on! 
Come on! 
Hey! 

Verse 

e|------------------------------------|------------------------------------| 
B|------------------------------------|------------------------------------| 
G|9-9-----7-7-----5-5-----7-7-7-7-7/8-|9-9-----7-7-----5-5-----7-7-7-7-7/8-| 
D|9-9-9-9-7-7-7-7-5-5-5-5-7-7-7-7-7/8-|9-9-9-9-7-7-7-7-5-5-5-5-7-7-7-7-7/8-| 
A|7-7-9-9-5-5-7-7-3-3-5-5-5-5-5-5-5/6-|7-7-9-9-5-5-7-7-3-3-5-5-5-5-5-5-5/6-| 
E|----7-7-----5-5-----3-3-------------|----7-7-----5-5-----3-3-------------| 

If it's all you know 
Then it's all you get 
Pretty vacant when I'm watching 
Now a heavy soul 
Need a time to dance 
Pretty sacred when I'm searching 

Solo 

e|---------------------------------------------------------------------------| 
B|---------------------------------------------------------------------------| 
G|--9---9---9---9---9---9---9---9--------------------------------------------| 
D|2-9-2-9-2-9-2-9-2-9-2-9-2-9-2-9--------------------------------------------| 
A|2-7-2-7-2-7-2-7-2-7-2-7-2-7-2-7--------------------------------------------| 
E|0---0---0---0---0---0---0---0----------------------------------------------| 

Pre-Chorus 

e|--------------------|--------------------|--------------------|--------------------| 
B|--------------------|--------------------|--------------------|--------------------| 
G|--------------------|--------------------|--------------------|--------------------| 
D|5/7-7-7-7-7-7-7-7-5-|5/7-7-7-7-7-7-7-7-5-|5/7-7-7-7-7-7-7-7-5-|5/7-7-7-7-7-7-7-7-5-| 
A|5/7-7-7-7-7-7-7-7-5-|5/7-7-7-7-7-7-7-7-5-|5/7-7-7-7-7-7-7-7-5-|5/7-7-7-7-7-7-7-7-5-| 
E|3/5-5-5-5-5-5-5-5-3-|3/5-5-5-5-5-5-5-5-3-|3/5-5-5-5-5-5-5-5-3-|3/5-5-5-5-5-5-5-5-3-| 

Crossed hearts and immoral lies 
Genuflecting all the ones you despise 
Three bulleits in the morning sun 
Dust clouds gonna cover everyone 

Chorus 

e|--------------------------|--------------------------| 
B|--------------------------|--------------------------| 
G|9-9-----------------4-----|9-9-----------------4-----| 
D|9-9-9-9-9-7-7-7-5-5-5-5-5-|9-9-9-9-9-7-7-7-5-5-5-5-5-| 
A|7-7-9-9-9-7-7-7-5-5-5-5-5-|7-7-9-9-9-7-7-7-5-5-5-5-5-| 
E|----7-7-7-5-5-5-3-3-3-3-3-|----7-7-7-5-5-5-3-3-3-3-3-| 

Hey, hey, hey, hey 
Hey, hey,hey 
Come on! 
Come on! 
Hey! 

Verse 

e|------------------------------------|------------------------------------| 
B|------------------------------------|------------------------------------| 
G|9-9-----7-7-----5-5-----7-7-7-7-7/8-|9-9-----7-7-----5-5-----7-7-7-7-7/8-| 
D|9-9-9-9-7-7-7-7-5-5-5-5-7-7-7-7-7/8-|9-9-9-9-7-7-7-7-5-5-5-5-7-7-7-7-7/8-| 
A|7-7-9-9-5-5-7-7-3-3-5-5-5-5-5-5-5/6-|7-7-9-9-5-5-7-7-3-3-5-5-5-5-5-5-5/6-| 
E|----7-7-----5-5-----3-3-------------|----7-7-----5-5-----3-3-------------| 

If it's all you know 
Then it's all you get 
Pretty vacant when I'm watching 
Now a heavy soul 
Need a time to dance 
Pretty sacred when I'm searching 

e|---------------------------------------------------------------------------| 
B|---------------------------------------------------------------------------| 
G|--9------------------------------------------------------------------------| 
D|2-9------------------------------------------------------------------------| 
A|2-7------------------------------------------------------------------------| 
E|0--------------------------------------------------------------------------| 



************************************ 

| /  Slide up 

************************************ 
  

top 5 | the temperance movement
top rock'n roll
Outras músicas do artista letras do(a) The Temperance Movement
Top cifras »Top artistas »
Petaxxon Comunicação Online
Cifras.com.br - Melhor e mais completo site de cifras e tablaturas do Brasil
Mais de 1 milhão de acordes de músicas cadastradas desde 2003
As informações contidas no nosso site são colaborações de seus usuários e podem conter erros, sendo assim, não nos responsabilizamos sobre nenhuma destas.
close
menos
mais
close
Cor dos acordes:

Cor da letra:

 

save
close
close
 
redimensionar