Cifras e Tablaturas
The Used

The Used

Over And Over Again

Cifras Cancelar Versão de Impressão
cifras

The Used - Over And Over Again

fixar na tela  
Exibindo: vídeo-aula ver clipes redimensionar

Tom:

  
Intro 
e|---------------------------------------------------------------------------| 
B|-7\12-1212-555-5-55-5-7\12-1212--777-7-77-7-7-77---------------------------| 
G|------------------------------------------------77-------------------------| 
D|---------------------------------------------------------------------------| 
A|-5\10-1010-333-3-33-3-5\10-1010--555-5-55-5-5-5555-------------------------| 
E|---------------------------------------------------------------------------| 

Verse 
e|----------------------|-----------------------------------------------------| 
B|-555-5-55-5-7\12-1212-|-777-7-77-7-7-77-------------------------------------| 
G|----------------------|----------------77-----------------------------------| 
D|----------------------|-----------------------------------------------------| 
A|-333-3-33-3-5\10-1010-|-555-5-55-5-5-5555-----------------------------------| 
E|----------------------|-----------------------------------------------------| 

Chorus 
e|-----------|----------|------------------|------------------------------------| 
B|--55555555-|-77777777-|-1212121212121212-|-5555555x---------------------------| 
G|--55555555-|-77777777-|-1212121212121212-|-5555555x---------------------------| 
D|-----------|----------|------------------|------------------------------------| 
A|--33333333-|-55555555-|-1010101010101010-|-3333333x---------------------------| 2x 
E|-----------|----------|------------------|------------------------------------| 

e|-----------|----------|-------------------------------------------------------| 
B|--55555555-|-77777777-|-12121212121212121212121212121212----------------------| 
G|--55555555-|-77777777-|-12121212121212121212121212121212----------------------| 
D|-----------|----------|-------------------------------------------------------| 
A|--33333333-|-55555555-|-10101010101010101010101010101010----------------------| 
E|-----------|----------|-------------------------------------------------------| 

e|-----------|---------------------------------------| 
B|--55555555-|-77777777------------------------------| 
G|--55555555-|-77777777------------------------------| 
D|-----------|---------------------------------------| 
A|--33333333-|-55555555------------------------------|  
E|-----------|---------------------------------------| 

verse 2 
e|---------------------------------------------------------------------------| 
B|-555-5-55-5-7\12-1212--777-7-77-7-7-77-------------------------------------| 
G|--------------------------------------77-----------------------------------| 
D|---------------------------------------------------------------------------| 
A|-333-3-33-3-5\10-1010--555-5-55-5-5-5555-----------------------------------| 
E|---------------------------------------------------------------------------| 



************************************ 

| \  Slide down 
| x  Dead note 

************************************ 
  

top 5 | the used
top
Outras músicas do artista letras do(a) The Used
Top cifras »Top artistas »
Petaxxon Comunicação Online
Cifras.com.br - Melhor e mais completo site de cifras e tablaturas do Brasil
Mais de 1 milhão de acordes de músicas cadastradas desde 2003
As informações contidas no nosso site são colaborações de seus usuários e podem conter erros, sendo assim, não nos responsabilizamos sobre nenhuma destas.
close
menos
mais
close
Cor dos acordes:

Cor da letra:

 

save
close
close
 
redimensionar