Cifras e Tablaturas
The Vamps

The Vamps

Can We Dance

Cifras Cancelar Versão de Impressão
cifras

The Vamps - Can We Dance

fixar na tela  
Exibindo: vídeo-aula ver clipes redimensionar
  
Intro 
The intro is played on synth, but can easily by played by guitar like so - 
e|-------------------------|    |-----------------| 
B|-------------------------|    |-----------------| 
G|------------------6--4---|    |-----------------| 
D|---7----9----6----6--4---| x3 |---7----9----2---| 
A|---7----9----6----4--2---|    |---7----9----2---| 
E|---5----7----4-----------|    |---5----7----0---| 

Verse 
Lead Guitar 
this can be played a few ways, but i believe its played like this to properly hear the slides 

e|------------------------------------| 
B|----9--9-s--4--4-s--9--9-s--2--2-s--| 
G|---9--9--s-4--4--s-9--9--s-2--2--s--| 
D|------------------------------------| x2 
A|------------------------------------| 
E|------------------------------------| 

Rhythm Guitar 

The strumming pattern for this isnt too important, just play whatever suits your playing style, but ill 
add a basic rhythmn 

D U D U D U D U  

e|-------------------------|--------------------------| 
B|-------------------------|--------------------------| 
G|-------------------------|--------------66666666----| 
D|---77777777----99999999--|--66666666----66666666----| x2 
A|---77777777----99999999--|--66666666----44444444----| 
E|---55555555----77777777--|--44444444----------------| 

Pre-Chorus 
Lead Guitar 
e|-----------------------------------| |----------------------------| 
B|----5--5-s--4--4-s--9--9-s--2--2-s-| |--5--5-s--4--4-s--2--2-s--7-| 
G|---6--6--s-4--4--s-9--9--s-2--2--s-| |-6--6--s-4--4--s-2--2-------| 
D|-----------------------------------| |----------------------------| 
A|-----------------------------------| |----------------------------| 
E|-----------------------------------| |----------------------------| 

Rhythm Guitar 

e|------------------------------------------------| |----------------------------------------------|  
B|------------------------------------------------| |----------------------------------------------| 
G|---------------------------------------66666666-| |----------------------------------------------| 
D|---77777777----99999999----66666666----66666666-| |---77777777----99999999----6666666666666666---| 
A|---77777777----99999999----66666666----44444444-| |---77777777----99999999----6666666666666666---| 
E|---55555555----77777777----44444444-------------| |---55555555----77777777----4444444444444444---| 

Chorus 
e|---------------------------------------------------|    |--------------------------| 
B|---------------------------------------------------|    |--------------------------| 
G|---------------------------------------6666--4444--|    |--------------------------| 
D|---77777777----99999999----66666666----6666--4444--| x3 |---77777777----99999999---| 
A|---77777777----99999999----66666666----4444--2222--|    |---77777777----99999999---| 
E|---55555555----77777777----44444444----------------|    |---55555555----77777777---| 

Post-Chorus 
Lead Guitar 
e|----------------------------------------| 
B|-9-9-12-12-9-9-12-12-9-9-12-12-9-9-12-s-| 
G|----------------------------------------| 
D|----------------------------------------| 
A|----------------------------------------| 
E|----------------------------------------| 

Rhythm Guitar 

e|-------| 
B|-------| 
G|-------| 
D|---2---| 
A|---2---| 
E|---0---| 

Verse 
Lead Guitar 

e|------------------------------------| 
B|----9--9-s--4--4-s--9--9-s--2--2-s--| 
G|---9--9--s-4--4--s-9--9--s-2--2--s--| 
D|------------------------------------| x2 
A|------------------------------------| 
E|------------------------------------| 

Rhythm Guitar 

e|-------------------------|--------------------------| 
B|-------------------------|--------------------------| 
G|-------------------------|--------------66666666----| 
D|---77777777----99999999--|--66666666----66666666----| x2 
A|---77777777----99999999--|--66666666----44444444----| 
E|---55555555----77777777--|--44444444----------------| 

Pre-Chorus 
Lead Guitar 

e|-----------------------------------| |----------------------------| 
B|----5--5-s--4--4-s--9--9-s--2--2-s-| |--5--5-s--4--4-s--2--2-s--7-| 
G|---6--6--s-4--4--s-9--9--s-2--2--s-| |-6--6--s-4--4--s-2--2-------| 
D|-----------------------------------| |----------------------------| 
A|-----------------------------------| |----------------------------| 
E|-----------------------------------| |----------------------------| 

Rhythm Guitar 

e|------------------------------------------------| |----------------------------------------------|  
B|------------------------------------------------| |----------------------------------------------| 
G|---------------------------------------66666666-| |----------------------------------------------| 
D|---77777777----99999999----66666666----66666666-| |---77777777----99999999----6666666666666666---| 
A|---77777777----99999999----66666666----44444444-| |---77777777----99999999----6666666666666666---| 
E|---55555555----77777777----44444444-------------| |---55555555----77777777----4444444444444444---| 

Chorus 
e|---------------------------------------------------|    |--------------------------| 
B|---------------------------------------------------|    |--------------------------| 
G|---------------------------------------6666--4444--|    |--------------------------| 
D|---77777777----99999999----66666666----6666--4444--| x3 |---77777777----99999999---| 
A|---77777777----99999999----66666666----4444--2222--|    |---77777777----99999999---| 
E|---55555555----77777777----44444444----------------|    |---55555555----77777777---| 

Bridge 
Lead Guitar 
This part was very hard to make out so im sorry if its not 100% Accurate 
  
  *************************      ********************* 
e|-------------------------|    |---------------------| 
B|-------------------------|    |---------------------| 
G|-------9-9-11-11-13-13---|    |-------9-9-11-11-13b-| 
D|-11-11-------------------| x3 |-11-11---------------| 
A|-------------------------|    |---------------------| 
E|-------------------------|    |---------------------| 

  *************************      *************************** 
e|-------------------------|    |---------------------------| 
B|-------------------------|    |---------------------------| 
G|-------9-9-11-11-13-13---|    |-13-13-13-13-13-13-13-13---| 
D|-11-11-------------------| x3 |---------------------------| 
A|-------------------------|    |---------------------------| 
E|-------------------------|    |---------------------------| 

Rhythm Guitar 

e|----------------------------------------------------| 
B|----------------------------------------------------| 
G|---------------66666666----------------6666--4444---| 
D|---44444444----66666666----44444444----6666--4444---| 
A|---44444444----44444444----44444444----4444--2222---| 
E|---22222222----------------22222222-----------------| 

e|--------------------------------------------------| 
B|--------------------------------------------------| 
G|---------------66666666---------------------------| 
D|---44444444----66666666----77777777----66666666---| 
A|---44444444----44444444----77777777----66666666---| 
E|---22222222----------------55555555----44444444---| 

Chorus 
e|---------------------------------------------------|    |--------------------------| 
B|---------------------------------------------------|    |--------------------------| 
G|---------------------------------------6666--4444--|    |--------------------------| 
D|---77777777----99999999----66666666----6666--4444--| x3 |---77777777----99999999---| 
A|---77777777----99999999----66666666----4444--2222--|    |---77777777----99999999---| 
E|---55555555----77777777----44444444----------------|    |---55555555----77777777---| 

Post-Chorus 
Rhythm Guitar 

e|-------| 
B|-------| 
G|-------| 
D|---2---| 
A|---2---| 
E|---0---| 


************************************ 

- s - Slide 
- D - Down stroke (strum) 
- U - Up stroke (strum) 
- b - Bend 
- * - Palm Mute 

************************************ 
  

cifra enviadasem correções
enviado porenviada por:gustsilva
top 5 | the vamps
top rock'n roll
Outras músicas do artista letras do(a) The Vamps
Top cifras »Top artistas »
Petaxxon Comunicação Online
Cifras.com.br - Melhor e mais completo site de cifras e tablaturas do Brasil
Mais de 1 milhão de acordes de músicas cadastradas desde 2003
As informações contidas no nosso site são colaborações de seus usuários e podem conter erros, sendo assim, não nos responsabilizamos sobre nenhuma destas.
close
menos
mais
close
Cor dos acordes:

Cor da letra:

 

save
close
close
 
redimensionar