Cifras e Tablaturas
The Who

The Who

Won't Get Fooled Again Tablatura Verificada

Ano: 1995
Album : Generation: The Very Best of the Who

Cifras Cancelar Versão de Impressão
cifras

The Who - Won't Get Fooled Again

fixar na tela  
Exibindo: vídeo-aula ver clipes redimensionar
  Intro 

---------------------------------------------------------------- 
---------------------------------------------------------------- 
-2------2-2-2--------------------------------------------------- 
-2------2-2-2--------------------------------------------------- 
-0------0-0-0--------------------------------------------------- 
-----3b--------------------------------------------------------- 



Verse 

-----------------------0---0---3-------------------------------- 
-----------------------0---1---3-------------------------------- 
-2-2-2--2-2-2--2-2-2---1---0---0-------------------------------- 
-2-2-2--2-2-2--2-2-2---2---2---0-------------------------------- 
-0-0-0--0-0-0--0-0-0---2---3---2-------------------------------- 
-----------------------0-------3-------------------------------- 

Chorus 

-2-2------|-3--0-|-3---2--2--2---------------------------------- 
-3-3------|-3--0-|-3---3--3--3---------------------------------- 
-2-2--2-2-|-0--1-|-0---2--2--2---------------------------------- 
-0-0--2-2-|-0--2-|-0---0--0--0---------------------------------- 
------0-0-|-0--2-|-0-------------------------------------------- 
----------|-3--0-|-3-------------------------------------------- 


Intrumental 

----3--2------3--2--|-----2-2-2-2-2-2-2-------2-2-2-2-2-2-2----- 
----3--3------3--3--|-----3-3-3-3-3-3-3-------3-3-3-3-3-3-3----- 
-2--0--2---2--0--2--|-2---2-2-2-2-2-2-2---2---2-2-2-2-2-2-2----- 
-2--0--0---2--0--0--|-2---0-0-0-0-0-0-0---2---0-0-0-0-0-0-0----- 
-0--0------0--0-----|-0-------------------0--------------------- 
----3---------3-----|------------------------------------------- 



Ponte 


-----0----------------------------------------------------------- 
-----0----------------------------------------------------------- 
-4---1---2---4--4------------------------------------------------ 
-4---2---2---4--4------------------------------------------------ 
-2---2---0---2--2------------------------------------------------ 
-----0----------------------------------------------------------- 



Solo 

-7b---------------------------|-7----------7----------7--------- 
-7b------------------10b11-10-|---10-10-10---10-10-10---10-10-10 
-7b----9b10r9--7---7----------|--------------------------------- 
-----9-----------9------------|--------------------------------- 
------------------------------|--------------------------------- 
------------------------------|--------------------------------- 

--------------------------------|------------------------------- 
-10-10-10--10-10--9--9-9-9--9-9-|-7----------------------------- 
--------------------------------|----7b------------------------- 
--------------------------------|-------9----------------------- 
--------------------------------|------------------------------- 
--------------------------------|------------------------------- 


---------------------------------------------------------------- 
-10b12-b12-b12r10--10-10--9---7b-----7b-----7b-----7b----------- 
------------------------------6b7r6--6b7r6--6b7r6--6b7r6-------- 
---------------------------------------------------------------- 
---------------------------------------------------------------- 
---------------------------------------------------------------- 

---------------------------------------------------------------- 
--------------------------------2/4-5/7\5----------------------- 
----------2-2-4--4p2------------------------2------------------- 
-6-5-3/4-------------4------2h4-------------2------------------- 
-----------------------5b6------------------0------------------- 
---------------------------------------------------------------- 



Final 

----3--2-------------------------------------------------------- 
-2--3--3--2--2--2---2-2-2-2---2--------------------------------- 
-2--0--2--2--2--2---2-2-2-2---2--------------------------------- 
-2--0--0--2--2--2---2-2-2-2---2--------------------------------- 
-0--0-----0--0--0---0-0-0-0---0--------------------------------- 
----3-----------------------------------------------------------
  

top 5 | the who
top rock clássico
Outras músicas do artista letras do(a) The Who
Top cifras »Top artistas »
Petaxxon Comunicação Online
Cifras.com.br - Melhor e mais completo site de cifras e tablaturas do Brasil
Mais de 1 milhão de acordes de músicas cadastradas desde 2003
As informações contidas no nosso site são colaborações de seus usuários e podem conter erros, sendo assim, não nos responsabilizamos sobre nenhuma destas.
close
menos
mais
close
Cor dos acordes:

Cor da letra:

 

save
close
close
 
redimensionar