Cifras e Tablaturas
Thee Oh Sees

Thee Oh Sees

Tidal Wave

Cifras Cancelar Versão de Impressão
cifras

Thee Oh Sees - Tidal Wave

fixar na tela  
Exibindo: vídeo-aula ver clipes redimensionar
  Tabbed by J 

Intro 
e|---3-----8------------------------------| 
B|---3-----8------------------------------| 
G|---4-----9------------------------------| x 4 
D|---5-----10-12-12-12-12-12-10-8-10-8----| 
A|---5-----10--------------------------10-| 
E|-3-3-6/8-8------------------------------| 

Verse 
Same as the intro with a slight variation  
e|---3-----8----------------------------| 
B|---3-----8----------------------------| 
G|---4-----9----------------------------| x 4 
D|---5-----10-12-12-12-12-12-8-10-------| 
A|---5-----10---------------------10-10-| 
E|-3-3-6/8-8----------------------------| 

Chorus 
Alternates between the two progressions x 4 
e|-3--6--8---10-10-10--8--3-| 
B|-3--6--8---10-10-10--8--3-| 
G|-4--7--9---11-11-11--7--4-| 
D|-5--8--10--12-12-12--8--5-| 
A|-5--8--10--12-12-12--8--5-| 
E|-3--6--8---10-10-10--6--3-| 

e|-3--6--10--8--8--8---6--3-| 
B|-3--6--10--8--8--8---6--3-| 
G|-4--7--11--9--9--9---7--4-| 
D|-5--8--12--10-10-10--8--5-| 
A|-5--8--12--10-10-10--8--5-| 
E|-3--6--10--8--8--8---6--3-| 

Outro 
For the outro it just seems like hes playing G a lot with both holding the chord and strummung through it 
e|----| 
B|-12-| 
G|-12-| 
D|-12-| 
A|-10-| 
E|----| 
Then play the verse till it fades out 
  

cifra enviadasem correções
enviado porenviada por:gustsilva
top 5 | thee oh sees
top rock alternativo
Outras músicas do artista letras do(a) Thee Oh Sees
Top cifras »Top artistas »
Petaxxon Comunicação Online
Cifras.com.br - Melhor e mais completo site de cifras e tablaturas do Brasil
Mais de 1 milhão de acordes de músicas cadastradas desde 2003
As informações contidas no nosso site são colaborações de seus usuários e podem conter erros, sendo assim, não nos responsabilizamos sobre nenhuma destas.
close
menos
mais
close
Cor dos acordes:

Cor da letra:

 

save
close
close
 
redimensionar