Cifras e Tablaturas
Cifras Cancelar Versão de Impressão
cifras

Thee Oh Sees - Web

fixar na tela  
Exibindo: vídeo-aula ver clipes redimensionar

Tom:

D

ver outros tons
  
Intro 
(0:00-0:30) 
                                     (DELAY) 
D|-------------------------------------12\---| 
A|-------------------------------------------| 
F|-------------------------------------------| (4x) 
C|-------------------------------------------| 
G|-------------------------------------------| 
D|-12\--12\--12\--12h15-15--9--9b--7--7------| 

(0:30-0:38) 
D|-12---12/15-15--5---3---| 
A|------------------------| 
F|------------------------| (1x) 
C|------------------------| 
G|------------------------| 
D|-12---12/15-15--5---3---| 


(0:40-1:00)                 
D|-12---12/15-15--5-----------------| 
A|---------------------5-5---5------| 
F|-------------------4-----7---7-4--| (3x) 
C|----------------------------------| 
G|----------------------------------| 
D|-12---12/15-15--5-----------------| 

(1:00-1:15) 
when the drums speed up 
D|-12---12/15-15--5---3---| 
A|--0----0--0--0--0---0---| 
F|--0----0--0--0--0---0---| (2x) 
C|--0----0--0--0--0---0---| 
G|--0----0--0--0--0---0---| 
D|-12---12/15-15--5---3---| 

(1:15-1:45) 
singing starts 
D|-12-----9-----7---| 
A|------------------| 
F|------------------| (4x) 
C|------------------| 
G|------------------| 
D|-12-----9-----7---| 

(1:15-2:00) 
rock out part (slightly bend the strings) 
1st time 
D|---0--0-0-0--0--0-0-0--0--0-0-0-0--0-0-0-0-0--0-0-0--0--0-0-0--0--0-0-0-0--0-| 
A|---5--5-5-5--5--5-5-5--5--5-5-5-8--8-8-8-8-3--3-3-3--3--3-3-3--2--2-2-2-2--0-| 
F|---4--4-4-4--4--4-4-4--4--4-4-4-7--7-7-7-7-2--2-2-2--2--2-2-2--1--1-1-1-1--0-|  
C|-----------------------------------------------------------------------------| 
G|-----------------------------------------------------------------------------| 
D|-----------------------------------------------------------------------------| 
  
2nd time                                                                   (touch slide w/ delay)  
D|---0--0-0-0--0--0-0-0--0--0-0-0-0--0-0-0-0-0--0-0-0--0--0-0-0--0--0-0-0-0----| 
A|---5--5-5-5--5--5-5-5--5--5-5-5-8--8-8-8-8-3--3-3-3--3--3-3-3--2--2-2-2-2----| 
F|---4--4-4-4--4--4-4-4--4--4-4-4-7--7-7-7-7-2--2-2-2--2--2-2-2--1--1-1-1-1--/-|  
C|-----------------------------------------------------------------------------| 
G|-----------------------------------------------------------------------------| 
D|-----------------------------------------------------------------------------| 

(2:00-2:30) 
singing part again 
D|-12-----9-----7---| 
A|------------------| 
F|------------------| (4x) 
C|------------------| 
G|------------------| 
D|-12-----9-----7---| 

(2:30-2:40) 
then rock out part again 
D|---0--0-0-0--0--0-0-0--0--0-0-0-0--0-0-0-0-0--0-0-0--0--0-0-0--0--0-0-0-0--0-| 
A|---5--5-5-5--5--5-5-5--5--5-5-5-8--8-8-8-8-3--3-3-3--3--3-3-3--2--2-2-2-2--0-| 
F|---4--4-4-4--4--4-4-4--4--4-4-4-7--7-7-7-7-2--2-2-2--2--2-2-2--1--1-1-1-1--0-| (2x) 
C|-----------------------------------------------------------------------------| 
G|-----------------------------------------------------------------------------| 
D|-----------------------------------------------------------------------------| 

(2:40-3:10) 
heavy fuzz 
D|-------------------------| 
A|-------------------------| 
F|-------------------------| (4x) 
C|-------------------------| 
G|-------------------------| 
D|-12---12h15---5--5b--3---| 

(3:10-3:40) 
D|-12-----9-----7---| 
A|------------------| 
F|------------------| (4x) 
C|------------------| 
G|------------------| 
D|-12-----9-----7---| 

(3:40-3:55) 
D|---0--0-0-0--0--0-0-0--0--0-0-0-0--0-0-0-0-0--0-0-0--0--0-0-0--0--0-0-0-0--0-| 
A|---5--5-5-5--5--5-5-5--5--5-5-5-8--8-8-8-8-3--3-3-3--3--3-3-3--2--2-2-2-2--0-| 
F|---4--4-4-4--4--4-4-4--4--4-4-4-7--7-7-7-7-2--2-2-2--2--2-2-2--1--1-1-1-1--0-| (2x) 
C|-----------------------------------------------------------------------------| 
G|-----------------------------------------------------------------------------| 
D|-----------------------------------------------------------------------------| 

(3:55-4:25) 
D|-------------------------| 
A|-------------------------| 
F|-------------------------| 
C|-------------------------|  (4x) 
G|-------------------------| 
D|-12---12-15---5--5b--3---| 

(4:25-4:40) 
D|-------------------------------------12\---| 
A|-------------------------------------------| 
F|-------------------------------------------| (2x) 
C|-------------------------------------------| 
G|-------------------------------------------| 
D|-12\--12\--12\--12h15-15--9--9b--7--7------| 


(4:40-4:55) 
Outro 

D|--------------------------------------------------------------------------------------------| 
A|--------------------------------------------------------------------------------------------| 
F|-9-9-9-9-9--9-9-9-9-9--9-9-9-9-9--9--12-12-12--6-6-6-6-6--6-6-6-6-6--4-4-4-4-4--4-4-4-4-4---| 
C|-9-9-9-9-9--9-9-9-9-9--9-9-9-9-9--9--12-12-12--6-6-6-6-6--6-6-6-6-6--4-4-4-4-4--4-4-4-4-4---| 
G|-7-7-7-7-7--7-7-7-7-7--7-7-7-7-7--7--10-10-10--4-4-4-4-4--4-4-4-4-4--2-2-2-2-2--2-2-2-2-2---| 
D|--------------------------------------------------------------------------------------------| 

D|---------------------------------------------------------------------------------------| 
A|---------------------------------------------------------------------------------------| 
F|-9-9-9-9\--9-9-9-9\--9-9-9-9\-9--12-12-12--6-6-6-6-6--6-6-6-6-6--4-4-4-4-4--4-4-4-4-4--| 
C|-9-9-9-9\--9-9-9-9\--9-9-9-9\-9--12-12-12--6-6-6-6-6--6-6-6-6-6--4-4-4-4-4--4-4-4-4-4--| 
G|-7-7-7-7\--7-7-7-7\--7-7-7-7\-7--10-10-10--4-4-4-4-4--4-4-4-4-4--2-2-2-2-2--2-2-2-2-2--| 
D|---------------------------------------------------------------------------------------| 


************************************ 

| h   Hammer on 
| b   Bend 
| /   Slide up 
| \   Slide down 

************************************ 
  

top 5 | thee oh sees
top rock alternativo
Outras músicas do artista letras do(a) Thee Oh Sees
Top cifras »Top artistas »
Petaxxon Comunicação Online
Cifras.com.br - Melhor e mais completo site de cifras e tablaturas do Brasil
Mais de 1 milhão de acordes de músicas cadastradas desde 2003
As informações contidas no nosso site são colaborações de seus usuários e podem conter erros, sendo assim, não nos responsabilizamos sobre nenhuma destas.
close
menos
mais
close
Cor dos acordes:

Cor da letra:

 

save
close
close
 
redimensionar