Cifras e Tablaturas
Thegiornalisti

Thegiornalisti

Completamente

Cifras Cancelar Versão de Impressão
cifras

Thegiornalisti - Completamente

fixar na tela  
Exibindo: vídeo-aula ver clipes redimensionar

Tom:

  
Intro 
 |Guitar 1 
 | 
e|--2----------------------------0---------------------------| 
B|--3----------------------------3---------------------------| 
G|--2----------------------------4---------------------------| 
D|--0----------------------------4---------------------------| 
A|--0----------------------------2---------------------------| 
E|-------------------------------0---------------------------| 
 | 
 | 
 |Guitar 2 
e|-----------------------------------------------------------| 
B|--15-14-15-14-15-14-15-14------15-14-15-14-15-14-15-14-----| 
G|--------------------------14---------------------------14--| 
D|-----------------------------------------------------------| 
A|-----------------------------------------------------------| 
E|-----------------------------------------------------------| 

 |Guitar 1 
 | 
e|--3----------------------------0---------------------------| 
B|--3----------------------------2---------------------------| 
G|--0----------------------------2---------------------------| 
D|--0----------------------------2---------------------------| 
A|--2----------------------------0---------------------------| 
E|--3----------------------------0---------------------------| 
 | 
 | 
 |Guitar 2 
e|-----------------------------------------------------------| 
B|--15-14-15-14-15-14-15-14------15-14-15-14-15-14-15-14-----| 
G|--------------------------14---------------------------14--| 
D|-----------------------------------------------------------| 
A|-----------------------------------------------------------| 
E|-----------------------------------------------------------| 

verse 1 
   "Lui chi è?       É un altro uomo che è impazzito per te"    \ 
e|--2----------------------------0----------------------------|   \ 
B|--3----------------------------3----------------------------|     \ 
G|--2----------------------------4----------------------------|      | 
D|--0----------------------------4----------------------------|      | 
A|--0----------------------------2----------------------------|      | 
E|-------------------------------0----------------------------|      | 
                                                                     | (x2) (Second time, strum chords) 
"Ma non penso che possa dirti tutto quello che ti dico io"           | 
e|--3----------------------------2----------------------------|      | 
B|--3----------------------------3----------------------------|      | 
G|--0----------------------------2----------------------------|      | 
D|--0----------------------------0----------------------------|     / 
A|--2----------------------------0----------------------------|   / 
E|--3---------------------------------------------------------| / 

Pre-Chorus 
     "Briciolo di..."       "Ed evitare..."     "Ed evitare di 
e|-2---------0--0-0--0--0--0-0--0--3--3-3--3--3--3-3--3-------| 
B|-3---------3--3-3--3--3--3-3--3--3--3-3--3--3--3-3--3-------| 
G|-2---------4--4-4--4--4--4-4--4--0--0-0--0--0--0-0--0-------| 
D|-0---------4--4-4--4--4--4-4--4--0--0-0--0--0--0-0--0-------| 
A|-4---------2--2-2--2--0--0-0--0--2--2-2--2--0--0-0--0-------| 
E|-----------0--0-0--0--0--0-0--0--3--3-3--3--2--2-2--2-------| 

guardarti come...""Come un pazzo..."       "Compl 
e|--0--0-0--0--0--0-0--0--2--2-2--2--2--2-2--2------| 
B|--0--0-0--0--2--2-2--2--3--3-3--3--3--3-3--3------| 
G|--2--2-2--2--2--2-2--2--2--2-2--2--2--2-2--2------| 
D|--2--2-2--2--2--2-2--2--0--0-0--0--0--0-0--0------| 
A|--0--0-0--0--0--0-0--0--0--0-0--0--4--4-4--4------| 
E|--0--0-0--0--0--0-0--0----------------------------| 

Chorus 
 etamente"                "Completamente" 
e|--0--0-0--0--0--0-0--0--3--3-3--3--3--3-3--3-------| 
B|--3--3-3--3--3--3-3--3--3--3-3--3--3--3-3--3-------| 
G|--4--4-4--4--4--4-4--4--0--0-0--0--0--0-0--0-------| 
D|--4--4-4--4--4--4-4--4--0--0-0--0--0--0-0--0-------| 
A|--2--2-2--2--0--0-0--0--2--2-2--2--0--0-0--0-------| 
E|--0--0-0--0--0--0-0--0--3--3-3--3--2--2-2--2-------| 
 | 
 |Guitar 2 
 | 
e|------5--2-5-----5--0-5-----5--2-5-----5--0-5------| 
B|--3-0--------3-0--------3-0--------3-0-------------| (Not sure about this part) 
G|---------------------------------------------------| 
D|---------------------------------------------------| 
A|---------------------------------------------------| 
E|---------------------------------------------------| 

verse 2 
   "Spero che       mi auguro di cuore che"     
e|--2--2-2--2--3--2-2--2--0--0-0--0--0--0-0--0-------|  
B|--3--3-3--3--3--3-3--3--3--3-3--3--3--3-3--3-------|  
G|--2--2-2--2--2--2-2--2--4--4-4--4--4--4-4--4-------|  
D|--0--0-0--0--0--0-0--0--4--4-4--4--4--4-4--4-------|  
A|--0--0-0--0--0--0-0--0--2--2-2--2--2--2-2--2-------|  
E|------------------------0--0-0--0--0--0-0--0-------|  
                                                                    
"Ci incontreremo ancora, perchè voglio perdere"            
e|--3--3-3--3--3--3-3--3--2--2-2--2--2--2-2--2-------|       
B|--3--3-3--3--3--3-3--3--3--3-3--3--3--3-3--3-------|       
G|--0--0-0--0--0--0-0--0--2--2-2--2--2--2-2--2-------|       
D|--0--0-0--2--0--0-0--0--0--0-0--0--0--0-0--0-------|      
A|--2--2-2--0--2--2-2--2--0--0-0--0--0--0-0--0-------|    
E|--3--3-3--3--3--3-3--3-----------------------------|  

Pre-Chorus 
     "Oserai andarci..."     "E provare..."     "E spararti tutto 
e|-2---------0--0-0--0--0--0-0--0--3--3-3--3--3--3-3--3-------| 
B|-3---------3--3-3--3--3--3-3--3--3--3-3--3--3--3-3--3-------| 
G|-2---------4--4-4--4--4--4-4--4--0--0-0--0--0--0-0--0-------| 
D|-0---------4--4-4--4--4--4-4--4--0--0-0--0--0--0-0--0-------| 
A|-4---------2--2-2--2--0--0-0--0--2--2-2--2--0--0-0--0-------| 
E|-----------0--0-0--0--0--0-0--0--3--3-3--3--2--2-2--2-------| 

ciò che provo..."      "Come un pazzo..."   "Compl 
e|--0--0-0--0--0--0-0--0--2--2-2--2--2--2-2--2------| 
B|--0--0-0--0--2--2-2--2--3--3-3--3--3--3-3--3------| 
G|--2--2-2--2--2--2-2--2--2--2-2--2--2--2-2--2------| 
D|--2--2-2--2--2--2-2--2--0--0-0--0--0--0-0--0------| 
A|--0--0-0--0--0--0-0--0--0--0-0--0--4--4-4--4------| 
E|--0--0-0--0--0--0-0--0----------------------------| 

Chorus 
 etamente"                "Completamente" 
e|--0--0-0--0--0--0-0--0--3--3-3--3--3--3-3--3-------| 
B|--3--3-3--3--3--3-3--3--3--3-3--3--3--3-3--3-------| 
G|--4--4-4--4--4--4-4--4--0--0-0--0--0--0-0--0-------| 
D|--4--4-4--4--4--4-4--4--0--0-0--0--0--0-0--0-------| 
A|--2--2-2--2--0--0-0--0--2--2-2--2--0--0-0--0-------| 
E|--0--0-0--0--0--0-0--0--3--3-3--3--2--2-2--2-------| 
 | 
 |Guitar 2 
 | 
e|------5--2-5-----5--0-5-----5--2-5-----5--0-5------| 
B|--3-0--------3-0--------3-0--------3-0-------------|  
G|---------------------------------------------------| 
D|---------------------------------------------------| 
A|---------------------------------------------------| 
E|---------------------------------------------------| 

    "Completamente"              
e|--0--0-0--0--0--0-0--0--| 
B|--0--0-0--0--2--2-2--2--| 
G|--2--2-2--2--2--2-2--2--| 
D|--2--2-2--2--2--2-2--2--| 
A|--0--0-0--0--0--0-0--0--| 
E|--0--0-0--0--0--0-0--0--| 

Outro 
 "La musica..." 
e|--0--0-0--0--0--0-0--0--3--3-3--3--3--3-3--3-------| 
B|--3--3-3--3--2--2-2--2--3--3-3--3--3--3-3--3-------| 
G|--4--4-4--4--2--2-2--2--0--0-0--0--0--0-0--0-------| (x2) 
D|--4--4-4--4--2--2-2--2--0--0-0--0--0--0-0--0-------| 
A|--2--2-2--2--0--0-0--0--2--2-2--2--0--0-0--0-------| 
E|--0--0-0--0--0--0-0--0--3--3-3--3--2--2-2--2-------| 

  "A me mi fa ancora male   Completamente"              
e|--0--0-0--0--0--0-0--0--2--2-2--2| 
B|--0--0-0--0--2--2-2--2--3--3-3--3| 
G|--2--2-2--2--2--2-2--2--2--2-2--2| 
D|--2--2-2--2--2--2-2--2--0--0-0--0| 
A|--0--0-0--0--0--0-0--0--0--0-0--0| 
E|--0--0-0--0--0--0-0--0--0--0-0--0| 

 "Non trovo..."                                    "Solo     \ 
e|--2--2-2--2--2--2-2--2--3--3-3--3--0--0-0--0--0--0-0--0--|   \ 
B|--3--3-3--3--3--3-3--3--3--3-3--3--2--2-2--2--3--3-3--3--|     \ 
G|--2--2-2--2--2--2-2--2--0--0-0--0--2--2-2--2--4--4-4--4--|      | 
D|--0--0-0--0--0--0-0--0--0--0-0--0--2--2-2--2--4--4-4--4--|      | 
A|--0--0-0--0--0--0-0--0--2--2-2--2--0--0-0--0--2--2-2--2--|      | 
E|------------------------3--3-3--3--0--0-0--0--0--0-0--0--|      | 
                                                                  | (x2) 
 così sto tanto bene"               "Completamente"               | 
e|--0--0-0--0--3--3-3--3--0--0-0--0--2---------------------|      | 
B|--2--2-2--2--3--3-3--3--2--2-2--2--3---------------------|      | 
G|--2--2-2--2--0--0-0--0--2--2-2--2--2---------------------|      | 
D|--2--2-2--2--0--0-0--0--2--2-2--2--0---------------------|     / 
A|--0--0-0--0--2--2-2--2--0--0-0--0--0---------------------|   / 
E|--0--0-0--0--3--3-3--3--0--0-0--0------------------------| / 
  

top 5 | thegiornalisti
top rock'n roll
Outras músicas do artista letras do(a) Thegiornalisti
Top cifras »Top artistas »
Petaxxon Comunicação Online
Cifras.com.br - Melhor e mais completo site de cifras e tablaturas do Brasil
Mais de 1 milhão de acordes de músicas cadastradas desde 2003
As informações contidas no nosso site são colaborações de seus usuários e podem conter erros, sendo assim, não nos responsabilizamos sobre nenhuma destas.
close
menos
mais
close
Cor dos acordes:

Cor da letra:

 

save
close
close
 
redimensionar