Cifras e Tablaturas
Theory of a Deadman

Theory of a Deadman

Me And My Girl

Cifras Cancelar Versão de Impressão
cifras

Theory of a Deadman - Me And My Girl

fixar na tela  
Exibindo: vídeo-aula ver clipes redimensionar
                        Theory of a Deadman - Me & My Girl 

                          Album: Gasoline 


Intro 

                                 (Banjo) 


e|--------------------------------------------------------------------------| 
B|--3---3--3---3------------------------------------------------------------| 
G|-------------------5p2----------------------------------------------------| 
D|-0--3--5---5---3p0--------------------------------------------------------| 
A|--------------------------------------------------------------------------| 
E|--------------------------------------------------------------------------| 

                                Lead Guitar  (Natural Harmonics) 


e|--------------------12---------------------------------------------------| 
B|-------------------------------------------------------------------------| 
G|-------------------------------------------------------------------------| 
D|-----5------5---7--------------------------------------------------------| 
A|-5------5----------------------------------------------------------------| 
E|---6------6------------6-------------------------------------------------| 


                            Rhythm Guitar 

e|---------------------------------------------------------------------------| 
B|---------------------------------------------------------------------------| 
G|---------------------------------------------------------------------------| 
D|--0---0h3--3---5---5p3--0--------------------------------------------------| 
A|--0---0h3--3---5---5p3--0--------------------------------------------------| 
E|--0---0h3--3---5---5p3--0--------------------------------------------------| 

e|---------------------------------------------------------------------------| 
B|---------------------------------------------------------------------------| 
G|---------------------------------------------------------------------------| 
D|--0--0h3---3---5--5p3--0---------------------------------------------------| 
A|--0--0h3---3---3--5p3--0---------------------------------------------------| 
E|--0--0h3---3------5p3--0---------------------------------------------------| 



Chorus 

e|---------------------------------------------------------------------------| 
B|---------------------------------------------------------------------------| 
G|---------------------------------------------------------------------------| 
D|--0--0h3---3---5---5p3--0---0h3--3--5--5p3--0------------------------------| 
A|--0--0h3---3---5---5p3--0---0h3--3--3--5p3--0------------------------------| 
E|--0--0h3---3---5---5p3--0---0h3--3-----5p3--0------------------------------| 

e|--------------------------------------------------------------------------| 
B|--------------------------------------------------------------------------| 
G|------5-------------------------------------------------------------------| 
D|--0---5---5--3----0---0h3--3---5------------------------------------------| 
A|--0---3---5--3----0---0h3--3---5------------------------------------------| 
E|--0-------5--3----0---0h3--3---5------------------------------------------| 

(Bridge) 


e|---------------------------------------------------------------------------| 
B|---------------------------------------------------------------------------| 
G|---------------------------------------------------------------------------| 
D|---5---8---3p0----5--3--0--------------------------------------------------| 
A|---5---8---3p0----5--3--0--------------------------------------------------| 
E|---5---8---3p0----5--3--0--------------------------------------------------| 

e|---------------------------------------------------------------------------| 
B|---------------------------------------------------------------------------| 
G|--(5)----------------------------------------------------------------------| 
D|--(5)--0----0---3----5----8------------------------------------------------| 
A|-------0----0---3----5----8------------------------------------------------| 
E|-------0----0---3----5----8------------------------------------------------| 

Chorus 

e|---------------------------------------------------------------------------| 
B|---------------------------------------------------------------------------| 
G|---------------------------------------------------------------------------| 
D|--0--0h3---3---5---5p3--0---0h3--3--5--5p3--0------------------------------| 
A|--0--0h3---3---5---5p3--0---0h3--3--3--5p3--0------------------------------| 
E|--0--0h3---3---5---5p3--0---0h3--3-----5p3--0------------------------------| 

e|--------------------------------------------------------------------------| 
B|--------------------------------------------------------------------------| 
G|------5-------------------------------------------------------------------| 
D|--0---5---5--3----0---0h3--3---5------------------------------------------| 
A|--0---3---5--3----0---0h3--3---5------------------------------------------| 
E|--0-------5--3----0---0h3--3---5------------------------------------------|  
  

top 5 | theory of a deadman
top rock'n roll
Outras músicas do artista letras do(a) Theory of a Deadman
Top cifras »Top artistas »
Petaxxon Comunicação Online
Cifras.com.br - Melhor e mais completo site de cifras e tablaturas do Brasil
Mais de 1 milhão de acordes de músicas cadastradas desde 2003
As informações contidas no nosso site são colaborações de seus usuários e podem conter erros, sendo assim, não nos responsabilizamos sobre nenhuma destas.
close
menos
mais
close
Cor dos acordes:

Cor da letra:

 

save
close
close
 
redimensionar