Cifras e Tablaturas
Therion

Therion

Vanaheim

Cifras Cancelar Versão de Impressão
cifras

Therion - Vanaheim

fixar na tela  
Exibindo: vídeo-aula ver clipes redimensionar

Tom:

  
|-------------------------------------------------------------------| 
|-------------------------------------------------------------------| 
|-12\11-9\7-9~--12\11-9\7-9/11-9~--/16-14-12-11--9-11-12--14-12-11--| 
|-------------------------------------------------------------------| 
|-------------------------------------------------------------------| 
|-------------------------------------------------------------------| 
 

Na quarta vez que você tocar isso com uma oitava 1 oitava acima: 

 
|-19\17-15-14--12-14-15--17-15-14-| 
|---------------------------------| 
|---------------------------------| 
|---------------------------------| 
|---------------------------------| 
|---------------------------------|  
 

Ambos os bares são jogados com a palma de silenciamento 8 vezes. 
O ritmo muda um pouco. 
 
|-------------|-------------| 
|-------------|-------------| 
|-------------|------4---4--| 
|------2---2--|------4---4--| 
|------2---2--|-2222-2-2-2--| 
|-0000-0-0-0--|-------------| 
 

Intro de novo, quando: 
Palma de silenciamento em um presente também:  
 
|------------|------------|------------|------------| 
|------------|------------|------------|------------| 
|------------|------------|------------|------------| 
|------7---7-|------5---5-|------9---9-|------9---9-| 
|------7---7-|------5---5-|------9---9-|------9---9-| 
|-5555-5-5-5-|-3333-3-3-3-|-7777-7-7-7-|-0000-7-7-7-| 
 
 
|------------|------------|------------|--------------| 
|------------|------------|------------|--------------| 
|------------|------------|------------|--------------| 
|------7---7-|------5---5-|------4---4-|-------4---4--| 
|------7---7-|------5---5-|------4---4-|-------4---4--| 
|-5555-5-5-5-|-3333-3-3-3-|-2222-2-2-2-|-2222-2-2-2-2-| 
 
 
|------------|-------------| 
|------------|-------------| 
|------------|-------------| 
|------4---4-|------4---4--| 
|------4---4-|------4---4--| 
|-2222-2-2-2-|-2222-2-2-2--| 
 

 Intro 4 vezes de novo, tocou com este : 

 
|------------------| 
|------------------| 
|------------------| 
|----9------9/11-9-| 
|----7------7/9--7-| 
|-0------0---------| 
 

Deixe o anel corda E. Este é jogado 4 vezes 
com o Intro. A outra guitarra está fazendo algum 
notas altas, mas eu posso guia-los, ajudar nisso 

 
|-----------------------------------------| 
|-----------------------------------------| 
|-----------------------------------------| 
|-----------7-----9-----5-----4-----2-----| 
|-----5-----5-----7-----3-----2-----0-----| 
|-----3-----------------------------------| 
 

No solo, Chris joga este abaixo 
apenas 1 vez. Aqui, veja o que acontece: 
cada nota é jogado 16 vezes (4x4), 
menos nos últimos 7, que é jogado 8 vezes 
(4x2) e esses acordes (apenas 1 vez) . 

 
|----------------------------------------| 
|----------------------------------------| 
|----------------------------------------| 
|---------------------------------9---9\-| 
|---0---2-----3---3---5---7---7---7---7\-| 
|----------3-----------------------------| .  
  
  

top 5 | therion
top diversos
Outras músicas do artista letras do(a) Therion
Top cifras »Top artistas »
Petaxxon Comunicação Online
Cifras.com.br - Melhor e mais completo site de cifras e tablaturas do Brasil
Mais de 1 milhão de acordes de músicas cadastradas desde 2003
As informações contidas no nosso site são colaborações de seus usuários e podem conter erros, sendo assim, não nos responsabilizamos sobre nenhuma destas.
close
menos
mais
close
Cor dos acordes:

Cor da letra:

 

save
close
close
 
redimensionar