Cifras e Tablaturas
Thicker Than Thieves
Cifras Cancelar Versão de Impressão

Thicker Than Thieves - Diamonds

Tom: Eb

  			
Tuning: Eb 

Intro 
eb---5--5-----5----8------7-----7----------------3-----1----1----------------1-1-----| 
Bb---5--5-----6----8------8--------8-------------3-----1-------1-------------1-1-----| 
Gb---5--5-----7----9------9-----------9----------4-----2----------2----------2-2-----| 
Db---7--7-----7----10-----9--------------9-------5-----3-------------3-------3-3-----| 
Ab---7--7-----5----10-----7----------------------5-----3---------------------3-3-----| 
Eb---5--5-----------8----------------------------3-----1---------------------1-1-----| 

Break (x2) 
eb---------------------------------------------------------------------------| 
Bb---------------------------------------------------------------------------| 
Gb---------------------------------------------------------------------------| 
Db--10--9--7-----------------------------------------------------------------| 
Ab--------------10---7----5-7-5-7--------------------------------------------| 
Eb------------------------------------7---8-10-8-10----5\--------------------| 
PM.................................................................. 

Verse (x4) 
eb---------------------------------------------------------------------------| 
Bb---------------------------------------------------------------------------| 
Gb---------------------------------------------------------------------------| 
Db--10--9--7-----------------------------------------------------------------| 
Ab--------------10---7----5-7-5-7--------------------------------------------| 
Eb------------------------------------7---8-10-8-10----5\--------------------| 
PM.................................................................. 

Pre-Chorus 
eb---5--5----8---8-------5--5--5--5-----5--5-----8---8------3------1-----------| 
Bb---5--5----8---8-------6--6--6--6-----5--5-----8---8------3------1-----------| 
Gb---5--5----9---9-------7--7--7--7-----5--5-----9---9------4------2-----------| 
Db---7--7----10--10------7--7--7--7-----7--7-----10--10-----5------3-----------| 
Ab---7--7----10--10------5--5--5--5-----7--7-----10--10-----5------3-----------| 
Eb---5--5----8----8---------------------5--5-----8---8------3------1-----------| 

Chorus 
eb--8----8------3--3--------8---8-----3--3-----------1---------------------| 
Bb--8----8------3--3--------8---8-----3--3-----------1---------------------| 
Gb--9----9------4--4--------9---9-----4--4-----------2---------------------| 
Db--10---10-----5---5-------10--10----5--5-----------3---------------------| 
Ab--10---10-----5---5-------10--10----5--5-----------3---------------------| 
Eb--8-----8-----3--3--------8----8----3--3-(x3)------1---------------------| 

*Repeat Verse (x4) 

Pre-Chorus 2 
eb---5--5----8---8-------5--5--5-5--5-5----5--5-----8---8------3-----1-----------| 
Bb---5--5----8---8-------6--6--6-6--6-6----5--5-----8---8------3-----1-----------| 
Gb---5--5----9---9-------7--7--7-7--7-7----5--5-----9---9------4-----2-----------| 
Db---7--7----10--10----- 7--7--7-7--7-7----7--7-----10--10-----5-----3-----------| 
Ab---7--7----10--10----- 5--5--5-5--5-5----7--7-----10--10-----5-----3-----------| 
Eb---5--5----8----8------------------------5--5-----8---8------3-----1-----------| 

Chorus 2 
eb--8----8------3--3--------8---8-----3--3--------------------------------| 
Bb--8----8------3--3--------8---8-----3--3--------------------------------| 
Gb--9----9------4--4--------9---9-----4--4--------------------------------| 
Db--10---10-----5--5--------10--10----5--5--------------------------------| 
Ab--10---10-----5--5--------10--10----5--5--------------------------------| 
Eb--8-----8-----3--3--------8----8----3--3-(x3)---------------------------| 

eb--8----8------3--3--------8---8-----3--3---------------------------| 
Bb--8----8------3--3--------8---8-----3--3---------------------------| 
Gb--9----9------4--4--------9---9-----4--4---------------------------| 
Db--10---10-----5--5--------10--10----5--5---------------------------| 
Ab--10---10-----5--5--------10--10----5--5---------------------------| 
Eb--8-----8-----3--3--------8----8----3--3---------------------------| 

eb--8----8------3--3--------8---8-----3--3---------------------------| 
Bb--8----8------3--3--------8---8-----3--3---------------------------| 
Gb--9----9------4--4--------9---9-----4--4---------------------------| 
Db--10---10----5--5---------10--10----5--5---------------------------| 
Ab--10---10----5--5---------10--10----5--5---------------------------| 
Eb--8-----8-----3--3--------8----8----3--3---------------------------| 

Bridge 
eb--7--7--7-----5--5--5-------------7--7--7----5---------------------------| 
Bb--8--8--8-----5--5--5-------------8--8--8----5---------------------------| 
Gb--9--9--9-----5--5--5-------------9--9--9----5---------------------------| 
Db--9--9--9-----7--7--7-------------9--9--9----7---------------------------| 
Ab--7--7--7-----7--7--7-------------7--7--7----7---------------------------| 
Eb--------------5--5--5-(x3)-----------------5-----------------------------| 


Break 
eb---5--5----8---8-------5--5--5--5-----5--5-----8---8------3---3-----1------------| 
Bb---5--5----8---8-------6--6--6--6-----5--5-----8---8------3---3-----1------------| 
Gb---5--5----9---9-------7--7--7--7-----5--5-----9---9------4---4-----2------------| 
Db---7--7----10--10------7--7--7--7-----7--7-----10--10-----5---5-----3------------| 
Ab---7--7----10--10------5--5--5--5-----7--7-----10--10-----5---5-----3------------| 
Eb---5--5----8----8---------------------5--5-----8---8------3---3-----1------------| 

Chorus 3 
eb--8----8------3--3--------8---8-----3--3---------------------------| 
Bb--8----8------3--3--------8---8-----3--3---------------------------| 
Gb--9----9------4--4--------9---9-----4--4---------------------------| 
Db--10---10-----5--5--------10--10----5--5---------------------------| 
Ab--10---10-----5--5--------10--10----5--5---------------------------| 
Eb--8-----8-----3--3--------8----8----3--3---------------------------| 

eb--8----8------3--3--------8---8-----3--3---------------------------| 
Bb--8----8------3--3--------8---8-----3--3---------------------------| 
Gb--9----9------4--4--------9---9-----4--4---------------------------| 
Db--10---10-----5--5--------10--10----5--5---------------------------| 
Ab--10---10------5--5-------10--10----5--5---------------------------| 
Eb--8-----8-----3--3--------8----8----3--3---------------------------| 

eb--8----8------3--3--------8---8-----3--3---------------------------| 
Bb--8----8------3--3--------8---8-----3--3---------------------------| 
Gb--9----9------4--4--------9---9-----4--4---------------------------| 
Db--10---10-----5--5--------10--10----5--5---------------------------| 
Ab--10---10-----5--5--------10--10----5--5---------------------------| 
Eb--8-----8-----3--3--------8----8----3--3---------------------------| 

eb--8---8------3--3------8---8-------3----------------------------------| 
Bb--8---8------3--3------8---8-------3----------------------------------| 
Gb--9---9------4--4------9---9-------4----------------------------------| 
Db--10--10-----5--5------10--10------5----------------------------------| 
Ab--10--10-----5--5------10--10------5----------------------------------| 
Eb--8----8-----3--3------8----8------3----------------------------------| 

End On 
eb------------1------------------------| 
Bb------------1------------------------| 
Gb------------2------------------------| 
Db------------3------------------------| 
Ab------------3------------------------| 
Eb------------1------------------------| 



************************************ 

| b   Bend 
| \   Slide down 
| PM  Palm mute   

************************************ 
    	
fixar
fixar inscrever-se

enviado porenviado por: tercmoraes
cifra enviadaCorrigida por: sem correções
logo top cifrasComente
ico música do artistaMúsicas deste artista
ico curtiuCurtiu?
ico destaqueDestaque
Petaxxon Comunicação Online

Cifras.com.br - Melhor e mais completo site de cifras e tablaturas do Brasil Mais de 1 milhão de acordes de músicas cadastradas desde 2003
As informações contidas no nosso site são colaborações de seus usuários e podem conter erros, sendo assim, não nos responsabilizamos sobre nenhuma destas.

close
menos
mais
close
Cor dos acordes:

Cor da letra:

close
Alinhar acordes a direita Alinhar acordes a esquerda Alinhar acordes em baixo Alinhar acordes no topo
close
  Mostrar todos os acordes Esconder acordes muito fáceis Esconder acordes fáceis Esconder acordes intermediários
redimensionar
glossário