Cifras e Tablaturas
Thin Lizzy

Thin Lizzy

Jailbreak Tablatura Verificada

Compositor : (Phil Lynott)

Cifras Cancelar Versão de Impressão
cifras

Thin Lizzy - Jailbreak

fixar na tela  
Exibindo: vídeo-aula ver clipes redimensionar
  
Guitar 1: 

Intro Riff 1: E5 A E5 F#5 E5 

eb|---------------------------| 
Bb|---------------------------| 
Gb|---------------------------| 
Db|-2-------------------------| 
Ab|-0----2----4-4-----2-2-4---| 
Eb|------0--0-2-2---0-0-0-2-0-| 

Chorus 1: B5 E5 


eb|---|--------------|---------------| 
Bb|---|--------------|---------------| 
Gb|---|--------------|---------------| 
Db|---|-4-4-4--------|-------2-------| 
Ab|-0-|-2-2-2-----2--|---0-4---------| 
Eb|---|---------0-0--|-0-------4-0-2-| 
                 (3x) 


Riff 1 

Chorus 2: B5 E5 A5 F#5 

eb|-------------|-----------| 
Bb|-------------|-----------| 
Gb|-------------|-----------| 
Db|-4-4-4-------|-2-2-2-----| 
Ab|-2-2-2----2--|-0-0-0---4-| 
Eb|--------0-0--|---------2-| 
           (3x) 

eb|--------------|---------------| 
Bb|--------------|---------------| 
Gb|--------------|---------------| 
Db|--4-4-4-------|-------2-------| 
Ab|--2-2-2-----2-|---0-4---------| 
Eb|----------0-0-|-0-------4-0-2-| 
             (3x) 

Bridge: 

eb|---------------------------------|---------------------------------| 
Bb|---------------------------------|---------------------------------| 
Gb|---------------------------------|---------------------------------| 
Db|-------6-----7-----8-----9-------|-------6-----7-----8-----9-------| 
Ab|-7-7-7---7-7---7-7---7-7---7--7~~|-7-7-7---7-7---7-7---7-7-----7\--| 
Eb|---------------------------------|---------------------------------| 
                                (3x) 

eb|--------------------------------| 
Bb|--------------------------------| 
Gb|--------------------------------| 
Db|--------------------------------| 
Ab|--0-0-0-4-0-0-5-0-0-6-0-0-7-0-0-| 
Eb|--------------------------------| (2x) 

eb|------------------------------------------------------------| 
Bb|------------------------------------------------------------| 
Gb|------------------------------------------------------------| 
Db|-------6-----7-----8-----9--------------6-----7-----8-----9-| 
Ab|-7-7-7---7-7---7-7---7-7---7--7~~-7-7-7---7-7---7-7---7-7---| 
Eb|------------------------------------------------------------| 

eb|-----------------------------| 
Bb|-----------------------------| 
Gb|-----6-----7-----8-----9~~~~-| 
Db|-----------------------------| 
Ab|-7-7---7-7---7-7---7-7-------| 
Eb|-----------------------------| 

Chorus 2: B5 E5 A5 F#5 

eb|-------------|-----------| 
Bb|-------------|-----------| 
Gb|-------------|-----------| 
Db|-4-4-4-------|-2-2-2-----| 
Ab|-2-2-2----2--|-0-0-0---4-| 
Eb|--------0-0--|---------2-| 

Guitar 2: 
 

Intro: 

eb|----------| 
Bb|---15b17--| 
Gb|----------| 
Db|----------| 
Ab|----------| 
Eb|----------| 

eb|-----------------| 
Bb|-----------------| 
Gb|---4b5r4--2------| 
Db|-------------4\--| 
Ab|-----------------| 
Eb|-----------------| 

Chorus: 

eb|------------------------------------------------| 
Bb|---17b19r17-17~~--17b19r17-17~~--17b19-17-17~~--| 
Gb|------------------------------------------------| 
Db|------------------------------------------------| 
Ab|------------------------------------------------| 
Eb|------------------------------------------------| 

eb|------------------------------------| 
Bb|------------------------------------| 
Gb|--16b18-(18)-(18)-18r16p14------14/-| 
Db|----------------------------16------| 
Ab|------------------------------------| 
Eb|------------------------------------| 


Intro: 

eb|-------------------------------------------| 
Bb|-------------------------------------------| 
Gb|---16b18-(18)-(18)-18r16p14--16b18p14------| 
Db|---------------------------------------16/-| 
Ab|-------------------------------------------| 
Eb|-------------------------------------------| 

eb|------------| 
Bb|------------| 
Gb|---4b5r4h5--| 
Db|------------| 
Ab|------------| 
Eb|------------| 

Chorus 2: 

eb|------------------------------------------------| 
Bb|---17b19r17-17~~--17b19r17-17~~--17b19-17-17~~--| 
Gb|------------------------------------------------| 
Db|------------------------------------------------| 
Ab|------------------------------------------------| 
Eb|------------------------------------------------| 

eb|-------------------------------------------------------------------| 
Bb|-------------------------------------------------------17b19r17~~--| 
Gb|---18r16-14-16b18-16b18-16b18-16b18r16h14-16b18-16b18--------------| 
Db|-------------------------------------------------------------------| 
Ab|-------------------------------------------------------------------| 
Eb|-------------------------------------------------------------------| 

eb|-----------17----------------------------------| 
Bb|--14-17b19----17b19r17--14-17-14-17b19r17-17~~-| 
Gb|-----------------------------------------------| 
Db|-----------------------------------------------| 
Ab|-----------------------------------------------| 
Eb|-----------------------------------------------| 

eb|---------------------------------------| 
Bb|---------------------------------------| 
Gb|---16b18--(18)-(18)-18r16h14-16h14-----| 
Db|------------------------------------16-| 
Ab|---------------------------------------| 
Eb|---------------------------------------| 



Chorus 3: 

eb|------------------------------------------------| 
Bb|---17b19r17-17~~--17b19r17-17~~--17b19-17-17~~--| 
Gb|------------------------------------------------| 
Db|------------------------------------------------| 
Ab|------------------------------------------------| 
Eb|------------------------------------------------| 

eb|-------------------------------------------------------------| 
Bb|----------------------------------------------14-17b19r17-17-| 
Gb|---16b18-16b18r16h14-16b18-16b18r16h14-----------------------| 
Db|----------------------------------------16-------------------| 
Ab|-------------------------------------------------------------| 
Eb|-------------------------------------------------------------| 

eb|-----------17------------------------------------------------------| 
Bb|--14-17b19----17b19r17--17b19r17-17--------14-14-------------------| 
Gb|-------------------------------------16b18--------16b18r19h14------| 
Db|---------------------------------------------------------------16--| 
Ab|-------------------------------------------------------------------| 
Eb|-------------------------------------------------------------------| 

  

cifra enviadacorrigido por:Acelot
enviado porenviada por:Angusjr1234
top 5 | thin lizzy
top rock'n roll
Outras músicas do artista letras do(a) Thin Lizzy
Top cifras »Top artistas »
Petaxxon Comunicação Online
Cifras.com.br - Melhor e mais completo site de cifras e tablaturas do Brasil
Mais de 1 milhão de acordes de músicas cadastradas desde 2003
As informações contidas no nosso site são colaborações de seus usuários e podem conter erros, sendo assim, não nos responsabilizamos sobre nenhuma destas.
close
menos
mais
close
Cor dos acordes:

Cor da letra:

 

save
close
close
 
redimensionar