Cifras e Tablaturas
Thrash Avenger

Thrash Avenger

Chronos

Cifras Cancelar Versão de Impressão Print

Thrash Avenger - Chronos

Tom:

  • 0:00 / 0:00
Intro: 

|---------------------------------------------------------------| 
|---------------------------------------------------------------| 
|---------------------------------------------------------------| 
|-----8-----7-----8-----7-----8~-----8-----7-----8-----7-----8~-| 
|-5-5---5-5---5-5---5-5---5-5----7-7---7-7---7-7---7-7---7-7----| 
|---------------------------------------------------------------| 

|-------------------------------------------------------------------| 
|-------------------------------------------------------------------| 
|-------------------------------------------------------------------| 
|-----8-----7-----8-----7-----8~-----8-----7------------------------| 
|-5-5---5-5---5-5---5-5---5-5----7-7---7-7------/12-10-8-10-8-7-8~~-| 
|-------------------------------------------------------------------| 

Riff 1 8x: 

|-----------------------------------------------------------------| 
|-----------------------------------------------------------------| 
|-----------------------------------------------------------------| 
|-----8---7-----8---7-----8---7-------8---7-----8---7-----8---7---| 
|-5-5---5---5-5---5---5-5---5---5-5-5---5---5-5---5---5-5---5---5-| 
|-----------------------------------------------------------------| 

Riff 2: 

|-------------------------------------------------------------| 
|-------------------------------------------------------------| 
|-7-(7)------------------12-(12)------10-(10)—-9—-8--10-------| 
|-7-(7)-------8-(8)------12-(12)------10-(10)--9--8--10-------| 
|-5-(5)-------8-(8)------10-(10)------8—-(8-)--7--6--8--------| 
|-------------6-(6)-------------------------------------------| 

Riff 3: 

|----------------------------------------------------------| 
|----------------------------------------------------------| 
|----------------------------------------------------------| 
|-0-0-3-0-0-2-0-0-3-0-0-2--3-2-----------------------------| 
|----------------------------------------------------------| 
|----------------------------------------------------------| 

Riff 4 2x: 

|-----------------------| 
|-----------------------| 
|-----------------------| 
|-2~~-2/3~~-3/5-3~~-----| 
|-----------------------| 
|-----------------------| 

Riff 1 8x: 

|-----------------------------------------------------------------| 
|-----------------------------------------------------------------| 
|-----------------------------------------------------------------| 
|-----8---7-----8---7-----8---7-------8---7-----8---7-----8---7---| 
|-5-5---5---5-5---5---5-5---5---5-5-5---5---5-5---5---5-5---5---5-| 
|-----------------------------------------------------------------| 

Riff 2 1x: 

|-------------------------------------------------------------| 
|-------------------------------------------------------------| 
|-7-(7)------------------12-(12)------10-(10)—-9—-8--10-------| 
|-7-(7)-------8-(8)------12-(12)------10-(10)--9--8--10-------| 
|-5-(5)-------8-(8)------10-(10)------8—-(8-)--7--6--8--------| 
|-------------6-(6)-------------------------------------------| 

Riff 3: 

|----------------------------------------------------------| 
|----------------------------------------------------------| 
|----------------------------------------------------------| 
|-0-0-3-0-0-2-0-0-3-0-0-2--3-2-----------------------------| 
|----------------------------------------------------------| 
|----------------------------------------------------------| 

Riff 5: 

|--------------------------------------------------------------------| 
|--------------------------------------------------------------------| 
|-----------10-----------10---------10-------------------------------| 
|-777777777-10-777777777-10-9999999-10-------------------------------| 
|-555555555-8--555555555-8--7777777-8--77777777--/12-10-8-10-8-7-8~~-| 
|--------------------------------------------------------------------| 

Riff 6 8x: 

|------------------| 
|------------------| 
|------------------| 
|--8~-7~-5~-7~-----| 
|------------------| 
|------------------| 

Riff 7 8x: 

|----------------------------------------------------------| 
|----------------------------------------------------------| 
|----------------------------------------------------------| 
|-888888-77777-55555-77777---------------------------------| 
|--------------------------888888-777777-555555-777777-----| 
|----------------------------------------------------------| 

Solo: 

|------------------------6^~~-5h6-8-6-5h6p5---5----------------------| 
|---------------------5-8------------------8---8-6-5h6p5---5---------| 
|-5*~~-7~~-5~~-------4-----------------------------------7---7-5-7p5-| 
|--------------7-5~-7------------------------------------------------| 
|--------------------------------------------------------------------| 
|--------------------------------------------------------------------| 

|--------------------------------------------------------------------| 
|--------------------------------------------------------------------| 
|---5----------------------------------------------------------------| 
|-7---7-5-7p5-5/7/5/7-7-5~--------7----7-8~~--10p8----10p8h10p8------| 
|---------------------8-7~-7-8-10---10------------10p8----------10p8-| 
|--------------------------------------------------------------------| 

|-------------------------------------------------------------------| 
|-------------------------------------------------------------------| 
|-------------------------------------------------------------------| 
|-10p8h10p8----10p8h10p8-----10p8h10p8------12p10-------12p10h12p10-| 
|----------10p8----------10p8----------10p8-------12p10-------------| 
|-------------------------------------------------------------------| 

|----------------------------------------------------------------| 
|----------------------------------------------------------------| 
|----------------------------------------------------------------| 
|------12p10h12p10------12p10h12p10-------12p10h12p10--/10h12----| 
|-12p10------------12p10------------12p10------------------------| 
|----------------------------------------------------------------| 

|--------------------------------------------10h13p10h13p10h13p10h13| 
|----------------------10h13bfull-13bfull~~-------------------------| 
|-10h12bfull-12bfull~~----------------------------------------------| 
|-------------------------------------------------------------------| 
|-------------------------------------------------------------------| 
|-------------------------------------------------------------------| 

|p10h13p10h13p10-------------10(10)----------------10---10---10----| 
|-----------------13bfull(13)------13bfull~~~~--13^--13^--13^--13^-| 
|------------------------------------------------------------------| 
|------------------------------------------------------------------| 
|------------------------------------------------------------------| 
|------------------------------------------------------------------| 

|-10--10---10---10---10----12---12---12---12---12---12---12-----| 
|---13^-13^--13^--13^---15^--15^--15^--15^--15^--15^--15^--15^--| 
|---------------------------------------------------------------| 
|---------------------------------------------------------------| 
|---------------------------------------------------------------| 
|---------------------------------------------------------------| 

|-17h20-20bfull-20^20^20^20^20^20—17~~~~--------------------------| 
|-----------------------------------------\x\x\\\-----------------| 
|-----------------------------------------\x\x\\\-----------------| 
|-----------------------------------------\x\x\\\-----------------| 
|-----------------------------------------\x\x\\\-----------------| 
|-----------------------------------------\x\x\\\-----------------| 

Riff 8: 

|----------------------------------------------------------| 
|----------------------------------------------------------| 
|----------------------------------------------------------| 
|--00-3-00-3-00-3-00-3-00-5---00-3-00-3-00-3-00-3-00-2-----| 
|--00-3-00-3-00-3-00-3-00-5---00-3-00-3-00-3-00-3-00-2-----| 
|-------------------------3--------------------------0-----| 

Riff 8: 

|---------------------------------------------------------------| 
|---------------------------------------------------------------| 
|---------------------------------------------------------------| 
|--00-3-00-3-00-3-00-3-00-5---00-3-00-3-------------------------| 
|--00-3-00-3-00-3-00-3-00-5---00-3-00-3-----12-10-8-10-8-7-8~~--| 
|-------------------------3-------------------------------------| 

Riff 6 8x: 

|------------------| 
|------------------| 
|------------------| 
|--8~-7~-5~-7~-----| 
|------------------| 
|------------------| 

enviado porenviado por: edsooliveira
cifra enviadaCorrigida por: sem correções
logo top cifrasComente
ico música do artistaMúsicas deste artista
ico curtiuCurtiu?
ico destaqueDestaque
Petaxxon Comunicação Online

Cifras.com.br - Melhor e mais completo site de cifras e tablaturas do Brasil Mais de 1 milhão de acordes de músicas cadastradas desde 2003
As informações contidas no nosso site são colaborações de seus usuários e podem conter erros, sendo assim, não nos responsabilizamos sobre nenhuma destas.

close
menos
mais
close
Cor dos acordes:

Cor da letra:

close
Alinhar acordes a direita Alinhar acordes a esquerda Alinhar acordes em baixo Alinhar acordes no topo
close
  Mostrar todos os acordes Esconder acordes muito fáceis Esconder acordes fáceis Esconder acordes intermediários
redimensionar
glossário