Cifras e Tablaturas
Three Days Grace

Three Days Grace

My Own Life

Cifras Cancelar Versão de Impressão
cifras

Three Days Grace - My Own Life

fixar na tela  
Exibindo: vídeo-aula ver clipes redimensionar

Tom:

  
Intro 

e|--8--8--8--8--8--8-| 
B|-------------------| 
G|-------------------| 
D|-------------------|  Repeat as needed 
A|-------------------| 
E|-------------------| 

e|----------8---------8----------8-------------------------------------------| 
B|---------------------------------------------------------------------------| 
G|---------------------------------------------------------------------------| 
D|---------------------------------------------------------------------------| Repeat 
A|----8-7-0----8-7--0----8--7--0-----8--7--0--1-1----------------------------| 
E|----8-7-0----8-7--0----8--7--0-----8--7--0--1-1----------------------------| 

e|----------------------------------------------------------------------| 
B|----------------------------------------------------------------------| 
G|----------------------------------------------------------------------| Repeat 
D|---7--5--7--------------------7--5--7---------------------------------| 
A|---7--5--7--7-5-7-8-7-7-5-7---7--5--7--7-5-7-8-7-7-5-7-1-1-1----------| 
E|---7--5--7--7-5-7-8-7-7-5-7---7--5--7--7-5-7-8-7-7-5-7-1-1-1----------| 


Verse 

e|---------------------------------------------------------------------------| 
B|---------------------------------------------------------------------------| 
G|------------------------------------------7--------------------------------| 
D|---9--7---9---7---3-----9---7---9--9--7---5--------------------------------| Repeat 
A|---7--5---7---5---1-----7---5---7--7--5---6--------------------------------| 
E|---7--5---7---5---1-----7---5---7--7--5------------------------------------| 


Chorus 

e|---------------------------------------------------------------------------| 
B|---------------------------------------------------------------------------| 
G|---------------------3-----------------------------------------------------|  Repeat 
D|---------------------3--0--------------------------------------------------| 
A|-6h7-7-7---4h5--2h3--1--0--------------------------------------------------| 
E|-6h7-7-7---4h5--2h3-----0--------------------------------------------------| 


(Bridge) 

e|---------------------------------------------------------------------------| 
B|---------------------------------------------------------------------------| 
G|---------------------------------------------------------------------------| Repeat 
D|---------------3--0--3-----------------------------------------------------| 
A|-0--3p0---10---1--0--1-----------------------------------------------------| 
E|-0--3p0---10---1--0--1-----------------------------------------------------| 




************************************ 
| h   Hammer-on 
| p   Pull-off 
************************************ 
  

top 5 | three days grace
top rock'n roll
Outras músicas do artista letras do(a) Three Days Grace
Top cifras »Top artistas »
Petaxxon Comunicação Online
Cifras.com.br - Melhor e mais completo site de cifras e tablaturas do Brasil
Mais de 1 milhão de acordes de músicas cadastradas desde 2003
As informações contidas no nosso site são colaborações de seus usuários e podem conter erros, sendo assim, não nos responsabilizamos sobre nenhuma destas.
close
menos
mais
close
Cor dos acordes:

Cor da letra:

 

save
close
close
 
redimensionar