Cifras e Tablaturas
Cifras Cancelar Versão de Impressão
cifras

Thrush Hermit - Marya

fixar na tela  
Exibindo: vídeo-aula ver clipes redimensionar

Tom:

  
Intro 

e|--------------------------------------------------------------------| 
B|--------------------------------------------------------------------| 
G|-6-x-4--4-4--------------------6-x-4--4-4---11-11-11-11-11-11-11-11-| 
D|-6-x-4--4-4-0-4-4-4-4-4-4-4-4--6-x-4--4-4-0-11-11-11-11-11-11-11-11-| 
A|-4-x-2--2-2-0-4-4-4-4-4-4-4-4--4-x-2--2-2-0--9--9--9--9--9--9--9--9-| 
E|--------------2-2-2-2-2-2-2-2---------------------------------------| 

e|--------------------------------------------------------------------| 
B|--------------------------------------------------------------------| 
G|-6-x-4--4-4--------------------6-x-4--4-4---2-----------------------| 
D|-6-x-4--4-4-0-4-4-4-4-4-4-4-4--6-x-4--4-4-0-2-----------------------| 
A|-4-x-2--2-2-0-4-4-4-4-4-4-4-4--4-x-2--2-2-0-0-----------------------| 
E|--------------2-2-2-2-2-2-2-2---------------------------------------| 


Verse  

listen to song for strumming pattern 

      He's not dead, he's lying in the bed beside the closet... 
e|---------------------------------------------------------------------------| 
B|---------------------------------------------------------------------------| 
G|-9-------------------------------------------------------------------------| 
D|-9-----------7----------6------------9-------------------------------------| 
A|-7-----------7----------6------------9-------------------------------------| 
E|-------------5----------4------------7-------------------------------------|x3 

    Her eyes, subside, am I still  alive? 
e|-------------------------------------------| 
B|-------------------------------------------| 
G|-9-------------------6-x--4--4-4---2-------| 
D|-9----7-----6--------6-x--4--4-4-0-2-------| 
A|-7----7-----6--------4-x--2--2-2-0-0-------| 
E|------5-----4------------------------------| 


Chorus  

listen to song for strumming pattern 

Guitar 1: 

e|---------------------------------------------| 
B|---------------------------------------------| 
G|-11-----13--14--------13--------18---16------| 
D|--x------x---x---------x---------x----x------| 
A|--9-----11--12--------11--------16---14------| 
E|---------------------------------------------|x4 

Guitar 2: 

e|---------------------------------------------| 
B|---------------------------------------------| 
G|---------------------------------------------| 
D|--4------6---7---------6--------11----9------| 
A|--4------6---7---------6--------11----9------| 
E|--2------4---5---------4---------9----7------|x4 


Post-Chorus 

Lead Guitar plays this little solo riff, while the rhythm guitar plays the riff verse twice 

e|-------------------------------------------------------------------------------| 
B|--------------14-----------------14------------------14-----------------14-----| 
G|-16--16-15-16----15-16--16-15-16----15--16--16-15-16----15-16--16-15-16----15--| 
D|-------------------------------------------------------------------------------| 
A|-------------------------------------------------------------------------------| 
E|-------------------------------------------------------------------------------| 

e|---------------------------------------------------------------------------| 
B|--------------14-----------------14------------------14--------------------| 
G|-16--16-15-16----15-16--16-15-16----15--16--16-15-16----15-16------\-------| 
D|---------------------------------------------------------------------------| 
A|---------------------------------------------------------------------------| 
E|---------------------------------------------------------------------------| 

Play verse 2 (same as first verse, but mostly palm muted) 

Play Chorus 


Bridge 

   Ooooooooooohhhhhh, I saw the people from the stairs 
e|-------------------------------------------------------| 
B|-------------------------------------------------------| 
G|-2-------1------------4--------------2-----------------| 
D|-2-------2------------4--------------2-----------------| 
A|-0-------2------------2--------------0-----------------| 
E|---------0---------------------------------------------| 

   Ooooooooooohhhhhh, They should know I'm just as scared 
e|-------------------------------------------------------| 
B|-------------------------------------------------------| 
G|-2-------1----------6-----------4--------2-------------| 
D|-2-------2----------6-----------4--------2-------------| 
A|-0-------2----------4-----------2--------0-------------| 
E|---------0---------------------------------------------| 

   Ooooooooooohhhhhh, They're hiding all their skeletons 
e|-------------------------------------------------------| 
B|-------------------------------------------------------| 
G|-2-------1------------------4----------------2---------| 
D|-2-------2------------------4----------------2---------| 
A|-0-------2------------------2----------------0---------| 
E|---------0---------------------------------------------| 

   Ooooooooooohhhhhh, They're probably one themselves 
e|-------------------------------------------------------| 
B|-------------------------------------------------------| 
G|-2-------1------------------6--------4-------2---------| 
D|-2-------2------------------6--------4-------2---------| 
A|-0-------2------------------4--------2-------0---------| 
E|---------0---------------------------------------------| 


Final Chorus 

Only Guitar 2 plays this part, with single strums 

Guitar 2: 

      Marya... 
e|---------------------------------------------| 
B|---------------------------------------------| 
G|---------------------------------------------| 
D|--4------6---7---------6--------11----9------| 
A|--4------6---7---------6--------11----9------| 
E|--2------4---5---------4---------9----7------|x3 

e|-----------------------------------| 
B|-----------------------------------| 
G|-----------------------------------| 
D|--4------6---7---------6--------11-| 
A|--4------6---7---------6--------11-| 
E|--2------4---5---------4---------9-| 

Then guitar 1 kicks in again, and the Chorus riff is played 4x regularly for both guitars,  
though there is no singing: 

Guitar 1: 

e|---------------------------------------------| 
B|---------------------------------------------| 
G|-11-----13--14--------13--------18---16------| 
D|--x------x---x---------x---------x----x------| 
A|--9-----11--12--------11--------16---14------| 
E|---------------------------------------------|x4 

Guitar 2: 

e|---------------------------------------------| 
B|---------------------------------------------| 
G|---------------------------------------------| 
D|--4------6---7---------6--------11----9------| 
A|--4------6---7---------6--------11----9------| 
E|--2------4---5---------4---------9----7------|x4 


Outro 

e|--------------------------------------------------------------------| 
B|--------------------------------------------------------------------| 
G|-6-x-4--4-4--------------------6-x-4--4-4---11-11-11-11-11-11-11-11-| 
D|-6-x-4--4-4-0-4-4-4-4-4-4-4-4--6-x-4--4-4-0-11-11-11-11-11-11-11-11-| 
A|-4-x-2--2-2-0-4-4-4-4-4-4-4-4--4-x-2--2-2-0--9--9--9--9--9--9--9--9-| 
E|--------------2-2-2-2-2-2-2-2---------------------------------------| 

e|--------------------------------------------------------------------| 
B|--------------------------------------------------------------------| 
G|-6-x-4--4-4--------------------6-x-4--4-4---2-----------------------| 
D|-6-x-4--4-4-0-4-4-4-4-4-4-4-4--6-x-4--4-4-0-2-----------------------| 
A|-4-x-2--2-2-0-4-4-4-4-4-4-4-4--4-x-2--2-2-0-0-----------------------| 
E|--------------2-2-2-2-2-2-2-2---------------------------------------| 

************************************ 

| x   Dead note 
| \   Slide down 

************************************ 
  

top 5 | thrush hermit
top rock'n roll
Outras músicas do artista letras do(a) Thrush Hermit
Top cifras »Top artistas »
Petaxxon Comunicação Online
Cifras.com.br - Melhor e mais completo site de cifras e tablaturas do Brasil
Mais de 1 milhão de acordes de músicas cadastradas desde 2003
As informações contidas no nosso site são colaborações de seus usuários e podem conter erros, sendo assim, não nos responsabilizamos sobre nenhuma destas.
close
menos
mais
close
Cor dos acordes:

Cor da letra:

 

save
close
close
 
redimensionar