Cifras e Tablaturas
Thy Art Is Murder

Thy Art Is Murder

Doomed From Birth

Cifras Cancelar Versão de Impressão
cifras

Thy Art Is Murder - Doomed From Birth

fixar na tela  
Exibindo: vídeo-aula ver clipes redimensionar

Tom:

  Tuning = 7-String Drop A (AEADGBe) 

Intro 
(Guitar 1 and 2) 
e|--------------------------------|---------------------------------| 
B|--------------------------------|---------------------------------| 
G|--------------------------------|---------------------------------| 
D|--------------------------------|---------------------------------| 
A|--------------------------------|---------------------------------| 
E|0-0---0-0-0-0---0-0-0-0---0-0---|0-0-0-0---0-0---0-------0-0-0----| 
A|0-0---0-0-0-0---0-0-0-0---0-0---|0-0-0-0---0-0---0-------0-0-0----| 
  PM-|  PM-----|  PM-----|  PM-|   PM-----|  PM-|  PM      PM---| 

e|----------------------------------|--------------------------------| 
B|----------------------------------|--------------------------------| 
G|----------------------------------|--------------------------------| 
D|----------------------------------|--------------------------------|(x4) 
A|----------------------------------|--------------------------------| 
E|0-0-0----0-0-0----0-0-0-0---0-0---|0-----0-----0-----0-----0-----0-| 
A|0-0-0----0-0-0----0-0-0-0---0-0---|1-----1-----1-----1-----1-----1-| 
  PM---|   PM---|   PM-----|  PM-|   PM-----------------------------| 

  DOOMED FROM BIRTH 
e|------------------| 
B|------------------| 
G|------------------| 
D|------------------| 
A|------------------| 
E|0-0-0----0-0-0----| 
A|0-0-0----0-0-0----| 
  PM---|   PM---|   

Build-Up 1 
(Guitar 1) 
e|--------------------------------|--------------------------------| 
B|--------------------------------|--------------------------------| 
G|--------------------------------|--------------------------------| 
D|--------------------------------|--------------------------------| 
A|0-------------------------------|--------------------------------| 
E|0-------------------------------|--------------------------------| 
A|0-------------------------------|--------------------------------| 

(Guitar 2) 
e|--------------------------------|--------------------------------| 
B|--------------------------------|--------------------------------| 
G|--------------------------------|--------------------------------| 
D|--------------------------------|--------------------------------|(x2) 
A|--------------------------------|--------------------------------| 
E|1-----------4-----------1-------|1---------------4p1-----5p2-----| 
A|----0---0-0-----0---0-0-----0---|----0---0---0-------5p2-----6p3-| 
      PM-----|    PM-----|    PM-|     PM---------| 

Verse Part 1 
(Guitar 1 and 2) 
e|--------------------------------|--------------------------------| 
B|--------------------------------|--------------------------------| 
G|--------------------------------|--------------------------------| 
D|--------------------------------|--------------------------------|(x2) 
A|--------------------------------|--------------------------------| 
E|1-----------4-----------1-------|1---------------4p1-----5p2-----| 
A|----0---0-0-----0---0-0-----0---|----0---0---0-------5p2-----6p3-| 
      PM-----|    PM-----|    PM-|     PM---------| 

(Guitar 1) 
e|--------------------------------|--------------------------------| 
B|--------------------------------|--------------------------------| 
G|--------------------------------|--------------------------------| 
D|--------------------------------|--------------------------------| 
A|--------------------------------|--------------------------------| 
E|4-----------7-----------4-------|4---------------7p4-----8p5-----| 
A|----0---0-0-----0---0-0-----0---|----0---0---0-------8p5-----9p6-| 
      PM-----|    PM-----|    PM-|     PM---------| 

(Guitar 2) 
e|--------------------------------|--------------------------------| 
B|--------------------------------|--------------------------------| 
G|--------------------------------|--------------------------------| 
D|--------------------------------|--------------------------------|(x2) 
A|--------------------------------|--------------------------------| 
E|1-----------4-----------1-------|1---------------4p1-----5p2-----| 
A|----0---0-0-----0---0-0-----0---|----0---0---0-------5p2-----6p3-| 
      PM-----|    PM-----|    PM-|     PM---------| 

Verse Part 2 
(Guitar 1 and 2)                   1st Ending                       2nd Ending 
e|--------------------------------|--------------------------------|---------------------------------| 
B|--------------------------------|--------------------------------|---------------------------------| 
G|--------------------------------|--------------------------------|---------------------------------| 
D|--------------------------------|--------------------------------|----------------------------7h10-| 
A|--------------------------------|--------------------------------|------------------------6h9------| 
E|5p2-------------5p2-----5p2-----|--------4-------5---4-----------|--------4-------5---4------------| 
A|----6p3-------------6p3-----6p3-|--------4-------5---4-----------|--------4-------5---4------------| 

(Guitar 1) 
e|--------------------------------|--------------------------------|---------------------------------| 
B|--------------------------------|--------------------------------|---------------------------------| 
G|--------------------------------|--------------------------------|---------------------------------| 
D|--------------------------------|--------------------------------|----------------------------7h10-| 
A|--------------------------------|--------------------------------|------------------------6h9------| 
E|5p2-------------5p2-----5p2-----|--------4-------5---4-----------|--------4-------5---4------------| 
A|----6p3-------------6p3-----6p3-|--------4-------5---4-----------|--------4-------5---4------------| 

(Guitar 2)                         1st Ending                       2nd Ending 
e|--------------------------------|--------------------------------|-----------------------------------| 
B|--------------------------------|--------------------------------|-----------------------------------| 
G|--------------------------------|--------------------------------|-----------------------------------| 
D|--------------------------------|--------------------------------|-----------------------------10h13-| 
A|--------------------------------|--------------------------------|------------------------9h12-------| 
E|8p5-------------8p5-----8p5-----|--------4-------5---4-----------|--------4-------5---4--------------| 
A|----9p6-------------9p6-----9p6-|--------4-------5---4-----------|--------4-------5---4--------------| 

Hook 
(Guitar 1) 
e|--------------------------------|--------------------------------|--------------------|----------------| 
B|--------------------------------|--------------------------------|--------------------|----------------| 
G|--------------------------------|--------------------------------|3---3-3---3-3-------|6---------------| 
D|--------------------------------|--------------------------------|3---3-3---3-3-------|6---------------|(x4) 
A|--------------------------------|--------------------------------|1---1-1---1-1-------|4---------------| 
E|0-------0---0-----------0-------|0-------0---0-----------0-------|1---1-1---1-1-------|4---------------| 
A|0-------0---0-----------0-------|0-------0---0-----------0-------|1---1-1---1-1-------|4---------------| 

(Guitar 2) 
e|----------------|----------------|------------------|------------------| 
B|----------------|----------------|------------------|------------------| 
G|9---9-9---9---9-|9---9-9---9---9-|10--10-10--10--10-|------------------| 
D|----------------|----------------|------------------|11--11-11--11--11-|(x4) 
A|7---7-7---7---7-|7---7-7---7---7-|8---8--8---8---8--|------------------| 
E|----------------|----------------|------------------|9---9--9---9---9--| 
A|----------------|----------------|------------------|------------------| 

Breakdown 1 
(Guitar 1 and 2) 
e|--------------------------------|------------------------------------------| 
B|--------------------------------|------------------------------------------| 
G|--------------------------------|------------------------------------------| 
D|--------------------------------|------------------------------------------|(x2) 
A|--------------------------------|------------------------------------------| 
E|0-------0---0-------0---0-------|0-0-0---0-0-0---0-0-0---0-0-0---0-0-0-----| 
A|1-------1---1-------1---1-------|1-1-1---1-1-1---1-1-1---1-1-1---1-1-1-----| 
  PM------------------------|      PM---------------------------------------| 

Breakdown 2 
(Guitar 1 and 2) 
e|--------------------------------|--------------------------------| 
B|--------------------------------|--------------------------------| 
G|--------------------------------|--------------------------------| 
D|--------------------------------|--------------------------------|(x4) 
A|--------------------------------|--------------------------------| 
E|0-0-0-0-0-0---0-0-0-0-0-0-0-----|0-0-0-0-----0-0-0-0-----0-0-----| 
A|0-0-0-0-0-0---0-0-0-0-0-0-0-----|0-0-0-0-----0-0-0-0-----0-0-----| 
  PM---------|  PM-----------|     PM-----|    PM-----|    PM-| 

Build-Up 2 
(Guitar 1 and 2) 
e|--------------------------------| 
B|--------------------------------| 
G|--------------------------------| 
D|--------------------------------| 
A|--------------------------------| 
E|--------------------------------| 
A|0-------------------------------| 

Breakdown 3 
(Guitar 1 and 2) 
e|----------------------------------------|------------------------------------------| 
B|----------------------------------------|------------------------------------------| 
G|----------------------------------------|------------------------------------------| 
D|----------------------------------------|------------------------------------------| 
A|----------------------------------------|------------------------------------------| 
E|0-0-0-0----0-0-0-0--------0-0-0-0---0---|0-0-0-0----0-0-0-0--------0-0-0-0---0-0-0-| 
A|1-1-1-1----1-1-1-1--------1-1-1-1---1---|1-1-1-1----1-1-1-1--------1-1-1-1---1-1-1-| 
  PM--------------------------------------------------------------------------------| 

e|----------------------------------------|------------------------------------------| 
B|----------------------------------------|------------------------------------------| 
G|----------------------------------------|------------------------------------------| 
D|----------------------------------------|------------------------------------------| 
A|----------------------------------------|------------------------------------------| 
E|0-0-0-0----0-0-0-0--------0-0-0-0---0---|0-0-0-0--------0-0-0-0---0---0---0--------| 
A|1-1-1-1----1-1-1-1--------1-1-1-1---1---|1-1-1-1--------1-1-1-1---1---1---1--------| 
  PM---------------------------------------------------------------------------| 

e|----------------------------------------|------------------------------------------| 
B|----------------------------------------|------------------------------------------| 
G|----------------------------------------|------------------------------------------| 
D|----------------------------------------|------------------------------------------| 
A|----------------------------------------|------------------------------------------| 
E|0-0-0-0----0-0-0-0--------0-0-0-0---0---|0-0-0-0----0-0-0-0--------0-0-0-0---0-0-0-| 
A|1-1-1-1----1-1-1-1--------1-1-1-1---1---|1-1-1-1----1-1-1-1--------1-1-1-1---1-1-1-| 
  PM--------------------------------------------------------------------------------| 

e|----------------------------------------|------------------------------------------| 
B|----------------------------------------|------------------------------------------| 
G|----------------------------------------|------------------------------------------| 
D|----------------------------------------|------------------------------------------|(x2) 
A|----------------------------------------|------------------------------------------| 
E|0-0-0-0----0-0-0-0--------0-0-0-0---0---|0-----0-----0-----0-----0-----0-----------| 
A|1-1-1-1----1-1-1-1--------1-1-1-1---1---|1-----1-----1-----1-----1-----1-----------| 
  PM----------------------------------------------------------------------| 

************************************ 

| h   Hammer-on 
| p   Pull-off 
| PM  Palm mute 

************************************ 
  

top 5 | thy art is murder
top rock'n roll
Outras músicas do artista letras do(a) Thy Art Is Murder
Top cifras »Top artistas »
Petaxxon Comunicação Online
Cifras.com.br - Melhor e mais completo site de cifras e tablaturas do Brasil
Mais de 1 milhão de acordes de músicas cadastradas desde 2003
As informações contidas no nosso site são colaborações de seus usuários e podem conter erros, sendo assim, não nos responsabilizamos sobre nenhuma destas.
close
menos
mais
close
Cor dos acordes:

Cor da letra:

 

save
close
close
 
redimensionar