Cifras e Tablaturas
Thy Art Is Murder

Thy Art Is Murder

Vile Creations

Cifras Cancelar Versão de Impressão

Thy Art Is Murder - Vile Creations

Tom:

  			

Intro 
(Guitar 1) 
e|--------------------------|--------------------------|------------------|--------------------------| 
B|--------------------------|--------------------------|------------------|--------------------------| 
G|--------------------------|--------------------------|------------------|--------------------------| 
D|--------------------------|--------------------------|------------------|--------------------------| 
A|--------------------------|--------------------------|------------------|--------------------------| 
E|0---0---0----0---0--------|0---0-0-0----0---0---0----|------------------|0---0-0-0----0---0---0----| 
A|1---1---1----1---1--------|1---1-1-1----1---1---1----|1p0---1p0---4p0---|1---1-1-1----1---1---1----| 
  PM------------------|      PM-----------------------|                    PM-----------------------| 

                                                                           VILE CREATIONS 
e|--------------------------|--------------------------|------------------|--------------------------| 
B|--------------------------|--------------------------|------------------|--------------------------| 
G|--------------------------|--------------------------|------------------|--------------------------| 
D|--------------------------|--------------------------|------------------|--------------------------| 
A|--------------------------|--------------------------|------------------|--------------------------| 
E|0---0---0----0---0--------|0---0-0-0----0---0---0----|------------------|0-------------------------| 
A|1---1---1----1---1--------|1---1-1-1----1---1---1----|1p0---1p0---4p0---|1-------------------------| 
  PM------------------|      PM-----------------------|                    Dive Bomb 

Hook 
(Guitar 1 and 2) 
e|--------------------------|--------------------------|------------------|--------------------------| 
B|--------------------------|--------------------------|------------------|--------------------------| 
G|--------------------------|--------------------------|------------------|--------------------------| 
D|--------------------------|--------------------------|------------------|--------------------------|(x4) 
A|--------------------------|--------------------------|------------------|--------------------------| 
E|0---0---0----0---0--------|0---0-0-0----0---0---0----|------------------|0---0-0-0----0---0---0----| 
A|1---1---1----1---1--------|1---1-1-1----1---1---1----|1p0---1p0---4p0---|1---1-1-1----1---1---1----| 
  PM------------------|      PM-----------------------|                    PM-----------------------| 

verse 1 
(Guitar 1 and 2)               1st Ending                   2nd Ending 
e|----------------------------|----------------------------|----------------------------| 
B|----------------------------|----------------------------|----------------------------| 
G|----------------------------|----------------------------|----------------------------| 
D|----------------------------|----------------------------|----------------------------| 
A|----------------------------|----------------------------|----------------------------| 
E|----------------------------|--------------4-1----5-2----|--------------4-1----5------| 
A|0-0-0--1-0-0--4-1-0--1-0-0--|0-4-1--0-1-0------0------0--|0-4-1--0-1-0------0---------| 
  PM----|  PM--|    PM   PM-----|     PM  PM     PM     PM  PM     PM  PM     PM 

(Guitar 1)                     1st Ending                   2nd Ending 
e|----------------------------|----------------------------|----------------------------| 
B|----------------------------|----------------------------|----------------------------| 
G|----------------------------|----------------------------|----------------------------| 
D|----------------------------|----------------------------|----------------------------| 
A|----------------------------|----------------------------|----------------------------| 
E|----------------------------|--------------4-1----5-2----|--------------4-1----5------| 
A|0-0-0--1-0-0--4-1-0--1-0-0--|0-4-1--0-1-0------0------0--|0-4-1--0-1-0------0---------| 
  PM----|  PM--|    PM   PM-----|     PM  PM     PM     PM  PM     PM  PM     PM 

(Guitar 2)                     1st Ending                   2nd Ending 
e|----------------------------|----------------------------|----------------------------| 
B|----------------------------|----------------------------|----------------------------| 
G|----------------------------|----------------------------|----------------------------| 
D|----------------------------|----------------------------|----------------------------| 
A|----------------------------|----------------------------|----------------------------| 
E|----------------------------|--------------7-4----8-5----|--------------7-4----8------| 
A|3-3-3--4-3-3--7-4-3--4-3-3--|3-7-4--3-4-3------3------3--|3-7-4--3-4-3------3---------| 
  PM----|  PM--|    PM   PM-----|     PM  PM     PM     PM  PM     PM  PM     PM 

Build-Up 1 
(Guitar 1) 
e|--------------------------------|--------------------------------| 
B|--------------------------------|--------------------------------| 
G|2-------------------------------|3---------------6---------7-----| 
D|2-------------------------------|3---------------6---------7-----| 
A|0-------------------------------|1---------------4---------5-----| 
E|0-------------------------------|1---------------4---------5-----| 
A|0-------------------------------|1---------------4---------5-----| 

(Guitar 2) 
e|--------------------------------|--------------------------------| 
B|--------------------------------|--------------------------------| 
G|--------------------------------|--------------------------------| 
D|7-7-7-7-7-7-7-7-7-7-7-7-8-8-8-8-|8-8-8-8-8-8-8-8-8-8-8-8-8-8-8-8-|(x3) 
A|--------------------------------|--------------------------------| 
E|5-5-5-5-5-5-5-5-5-5-5-5-6-6-6-6-|6-6-6-6-6-6-6-6-6-6-6-6-6-6-6-6-| 
A|--------------------------------|--------------------------------| 

e|------------------------------------------------|------------------------------------------------| 
B|------------------------------------------------|------------------------------------------------| 
G|------------------------------------------------|------------------------------------------------| 
D|11-11-11-11-11-11-11-11-11-11-11-11-12-12-12-12-|12-12-12-12-12-12-12-12-12-12-12-12-12-12-12-12-| 
A|------------------------------------------------|------------------------------------------------| 
E|9--9--9--9--9--9--9--9--9--9--9--9--10-10-10-10-|10-10-10-10-10-10-10-10-10-10-10-10-10-10-10-10-| 
A|------------------------------------------------|------------------------------------------------| 

Breakdown 1 Part 1 
(Guitar 1) 
e|--------------------------------|--------------------------------| 
B|--------------------------------|--------------------------------| 
G|--------------------------------|--------------------------------| 
D|--------------------------------|--------------------------------| 
A|--------------------------------|--------------------------------| 
E|--------------------------------|--------------------------------| 
A|0-0-0-0-0---0-0-0-0-0---0-0-0-0-|0---0-0-0-0-0---0-0-0-0-0---0-0-| 
  PM-------|  PM-------|  PM--------|  PM-------|  PM-------|  PM-| 

e|--------------------------------|--------------------------------| 
B|--------------------------------|--------------------------------| 
G|--------------------------------|--------------------------------| 
D|--------------------------------|--------------------------------| 
A|--------------------------------|--------------------------------| 
E|--------------------------------|--------------------------------| 
A|0-0-0---0-0-0-0-0---0-0-0-0-0---|0-0-0-0-0---0-0-0-0-0---0-0-0-0-| 
  PM---|  PM-------|  PM-------|   PM-------|  PM-------|  PM-----| 

e|--------------------------------|--------------------------------| 
B|--------------------------------|--------------------------------| 
G|--------------------------------|--------------------------------| 
D|--------------------------------|--------------------------------| 
A|--------------------------------|--------------------------------| 
E|--------------------------------|--------------------------------| 
A|0---1-1-1-1-1---1-1-1-1-1---1-1-|1-1-1---1-1-1-1-1---1-1-1-1-1---| 
  PM  PM-------|  PM-------|  PM--------|  PM-------|  PM-------| 

e|--------------------------------|--------------------------------| 
B|--------------------------------|--------------------------------| 
G|--------------------------------|--------------------------------| 
D|--------------------------------|--------------------------------| 
A|--------------------------------|--------------------------------| 
E|--------------------------------|--------------------------------| 
A|4-4-4-4-4---4-4-4-4-4---4-4-4-4-|4---4-4-4-4-4---4-4-4-4-4---4-4-| 
  PM-------|  PM-------|  PM--------|  PM-------|  PM-------|  PM-| 

(Guitar 2) 
e|------------------------------------|------------------------------------------------| 
B|------------------------------------|------------------------------------------------| 
G|9-9-9-9-9-9-9-9-9-9-9-9-10-10-10-10-|10-10-10-10-10-10-10-10-10-10-10-10-10-10-10-10-| 
D|------------------------------------|------------------------------------------------| 
A|------------------------------------|------------------------------------------------| 
E|------------------------------------|------------------------------------------------| 
A|------------------------------------|------------------------------------------------| 

e|------------------------------------|--------------------------------------------| 
B|------------------------------------|--------------------------------------------| 
G|9-9-9-9-9-9-9-9-9-9-9-9-10-10-10-10-|10-10-10-10-10-10-10-10-10-10-10-10-7-7-7-7-| 
D|------------------------------------|--------------------------------------------| 
A|------------------------------------|--------------------------------------------| 
E|------------------------------------|--------------------------------------------| 
A|------------------------------------|--------------------------------------------| 

e|------------------------------------|------------------------------------------------| 
B|------------------------------------|------------------------------------------------| 
G|9-9-9-9-9-9-9-9-9-9-9-9-10-10-10-10-|10-10-10-10-10-10-10-10-10-10-10-10-10-10-10-10-| 
D|------------------------------------|------------------------------------------------| 
A|------------------------------------|------------------------------------------------| 
E|------------------------------------|------------------------------------------------| 
A|------------------------------------|------------------------------------------------| 

e|------------------------------------------------|------------------------------------------------| 
B|------------------------------------------------|------------------------------------------------| 
G|14-14-14-14-14-14-14-14-14-14-14-14-12-12-12-12-|15-15-15-15-15-15-15-15-15-15-15-15-15-15-15-15-| 
D|------------------------------------------------|------------------------------------------------| 
A|------------------------------------------------|------------------------------------------------| 
E|------------------------------------------------|------------------------------------------------| 
A|------------------------------------------------|------------------------------------------------| 

Breakdown 1 Part 2 
(Guitar 1 and 2) 
e|--------------------------------|--------------------------------| 
B|--------------------------------|--------------------------------| 
G|--------------------------------|--------------------------------| 
D|--------------------------------|--------------------------------| 
A|--------------------------------|--------------------------------| 
E|--------------------------------|--------------------------------| 
A|0-0-0-0-0---0-0-0-0-0---0-0-0-0-|0---0-0-0-0-0---0-0-0-0-0---0-0-| 
  PM-------|  PM-------|  PM--------|  PM-------|  PM-------|  PM-| 

e|--------------------------------|--------------------------------| 
B|--------------------------------|--------------------------------| 
G|--------------------------------|--------------------------------| 
D|--------------------------------|--------------------------------| 
A|--------------------------------|--------------------------------| 
E|--------------------------------|--------------------------------| 
A|0-0-0---0-0-0-0-0---0-0-0-0-0---|0-0-0-0-0---0-0-0-0-0---0-0-0-0-| 
  PM---|  PM-------|  PM-------|   PM-------|  PM-------|  PM-----| 

e|--------------------------------|--------------------------------| 
B|--------------------------------|--------------------------------| 
G|--------------------------------|--------------------------------| 
D|--------------------------------|--------------------------------| 
A|--------------------------------|--------------------------------| 
E|--------------------------------|--------------------------------| 
A|0---1-1-1-1-1---1-1-1-1-1---1-1-|1-1-1---1-1-1-1-1---1-1-1-1-1---| 
  PM  PM-------|  PM-------|  PM--------|  PM-------|  PM-------| 

e|--------------------------------|--------------------------------| 
B|--------------------------------|--------------------------------| 
G|--------------------------------|--------------------------------| 
D|--------------------------------|--------------------------------| 
A|--------------------------------|--------------------------------| 
E|--------------------------------|--------------------------------| 
A|4-4-4-4-4---4-4-4-4-4---4-4-4-4-|4---4-4-4-4-4---4-4-4-4-4---4-4-| 
  PM-------|  PM-------|  PM--------|  PM-------|  PM-------|  PM-| 

Build-Up 2 
(Guitar 1 and 2) 
e|--------------------------------|--------------------------------| 
B|--------------------------------|--------------------------------| 
G|--------------------------------|--------------------------------| 
D|7-7-7-7-7-7-7-7-7-7-7-7-8-8-8-8-|8-8-8-8-8-8-8-8-8-8-8-8-8-8-8-8-| 
A|--------------------------------|--------------------------------| 
E|5-5-5-5-5-5-5-5-5-5-5-5-6-6-6-6-|6-6-6-6-6-6-6-6-6-6-6-6-6-6-6-6-| 
A|--------------------------------|--------------------------------| 

e|--------------------------------|--------------------------------| 
B|--------------------------------|--------------------------------| 
G|--------------------------------|--------------------------------| 
D|7-7-7-7-7-7-7-7-7-7-7-7-8-8-8-8-|8-8-8-8-5-5-5-5-5-5-5-5-8-8-8-8-| 
A|--------------------------------|--------------------------------| 
E|5-5-5-5-5-5-5-5-5-5-5-5-6-6-6-6-|6-6-6-6-3-3-3-3-3-3-3-3-6-6-6-6-| 
A|--------------------------------|--------------------------------| 

e|--------------------------------|--------------------------------| 
B|--------------------------------|--------------------------------| 
G|--------------------------------|--------------------------------| 
D|7-7-7-7-7-7-7-7-7-7-7-7-8-8-8-8-|8-8-8-8-8-8-8-8-8-8-8-8-8-8-8-8-| 
A|--------------------------------|--------------------------------| 
E|5-5-5-5-5-5-5-5-5-5-5-5-6-6-6-6-|6-6-6-6-6-6-6-6-6-6-6-6-6-6-6-6-| 
A|--------------------------------|--------------------------------| 

                                                                           (Guitar 2 only) 
e|------------------------------------------------|--------------------------------------| 
B|------------------------------------------------|--------------------------------------| 
G|------------------------------------------------|--------------------------------------| 
D|12-12-12-12-12-12-12-12-12-12-12-12-11-11-11-11-|11-11-11-11-11-11-11-11---------------| 
A|------------------------------------------------|--------------------------------------| 
E|10-10-10-10-10-10-10-10-10-10-10-10-9--9--9--9--|9--9--9--9--9--9--9--9--0-0-0--0-0----| 
A|------------------------------------------------|------------------------1-1-1--1-1----| 


Hook 
(Guitar 1 and 2) 
e|--------------------------|--------------------------|------------------|--------------------------| 
B|--------------------------|--------------------------|------------------|--------------------------| 
G|--------------------------|--------------------------|------------------|--------------------------| 
D|--------------------------|--------------------------|------------------|--------------------------|(x4) 
A|--------------------------|--------------------------|------------------|--------------------------| 
E|0---0---0----0---0--------|0---0-0-0----0---0---0----|------------------|0---0-0-0----0---0---0----| 
A|1---1---1----1---1--------|1---1-1-1----1---1---1----|1p0---1p0---4p0---|1---1-1-1----1---1---1----| 
  PM------------------|      PM-----------------------|                    PM-----------------------| 

verse 2 Part 1 
(Guitar 1 and 2)               1st Ending                   2nd Ending 
e|----------------------------|----------------------------|----------------------------| 
B|----------------------------|----------------------------|----------------------------| 
G|----------------------------|----------------------------|----------------------------| 
D|----------------------------|----------------------------|----------------------------| 
A|----------------------------|----------------------------|----------------------------| 
E|----------------------------|--------------4-1----5-2----|--------------4-1----5------| 
A|0-0-0--1-0-0--4-1-0--1-0-0--|0-4-1--0-1-0------0------0--|0-4-1--0-1-0------0---------| 
  PM----|  PM--|    PM   PM-----|     PM  PM     PM     PM  PM     PM  PM     PM 

(Guitar 1)                     1st Ending                   2nd Ending 
e|----------------------------|----------------------------|----------------------------| 
B|----------------------------|----------------------------|----------------------------| 
G|----------------------------|----------------------------|----------------------------| 
D|----------------------------|----------------------------|----------------------------| 
A|----------------------------|----------------------------|----------------------------| 
E|----------------------------|--------------4-1----5-2----|--------------4-1----5------| 
A|0-0-0--1-0-0--4-1-0--1-0-0--|0-4-1--0-1-0------0------0--|0-4-1--0-1-0------0---------| 
  PM----|  PM--|    PM   PM-----|     PM  PM     PM     PM  PM     PM  PM     PM 

(Guitar 2)                     1st Ending                   2nd Ending 
e|----------------------------|----------------------------|----------------------------| 
B|----------------------------|----------------------------|----------------------------| 
G|----------------------------|----------------------------|----------------------------| 
D|----------------------------|----------------------------|----------------------------| 
A|----------------------------|----------------------------|----------------------------| 
E|----------------------------|--------------7-4----8-5----|--------------7-4----8------| 
A|3-3-3--4-3-3--7-4-3--4-3-3--|3-7-4--3-4-3------3------3--|3-7-4--3-4-3------3---------| 
  PM----|  PM--|    PM   PM-----|     PM  PM     PM     PM  PM     PM  PM     PM 

verse 2 Part 2 
(Guitar 1 and 2) 
e|--------------------------------|--------------------------------| 
B|--------------------------------|--------------------------------| 
G|--------------------------------|--------------------------------| 
D|--------------------------------|--------------------------------| 
A|12N-------------12N-------------|--------------------------------| 
E|--------------------------------|13N-------------12N---9N--------| 
A|--------10N-------------10N-----|--------10N-----------------13N-| 

e|--------------------------------|--------------------------------| 
B|--------------------------------|--------------------------------| 
G|--------------------------------|--------------------------------| 
D|--------------------------------|--------------------------------| 
A|----------------12N-------------|--------------------------------| 
E|--------------------------------|13N-------------12N---9N--------| 
A|12N-----10N-------------10N-----|--------10N-----------------13N-| 

(Guitar 1) 
e|--------------------------------|--------------------------------| 
B|--------------------------------|--------------------------------| 
G|--------------------------------|--------------------------------| 
D|--------------------------------|--------------------------------| 
A|12N-------------12N-------------|--------------------------------| 
E|--------------------------------|13N-------------12N---9N--------| 
A|--------10N-------------10N-----|--------10N-----------------13N-| 

e|--------------------------------|--------------------------------| 
B|--------------------------------|--------------------------------| 
G|--------------------------------|--------------------------------| 
D|--------------------------------|--------------------------------| 
A|----------------12N-------------|--------------------------------| 
E|--------------------------------|13N-------------12N---9N--------| 
A|12N-----10N-------------10N-----|--------10N-----------------13N-| 

(Guitar 2) 
e|--------------------------------|--------------------------------| 
B|--------------------------------|--------------------------------| 
G|--------------------------------|--------------------------------| 
D|--------------------------------|--------------------------------| 
A|15N-------------15N-------------|--------------------------------| 
E|--------------------------------|16N-------------15N---12N-------| 
A|--------13N-------------13N-----|--------13N-----------------16N-| 

e|--------------------------------|--------------------------------| 
B|--------------------------------|--------------------------------| 
G|--------------------------------|--------------------------------| 
D|--------------------------------|--------------------------------| 
A|----------------15N-------------|--------------------------------| 
E|--------------------------------|16N-------------15N---12N-------| 
A|15N-----13N-------------13N-----|--------13N-----------------16N-| 


Break Part 1 
(Guitar 1) 
e|--------------------------------|--------------------------------| 
B|--------------------------------|--------------------------------| 
G|--------------------------------|--------------------------------| 
D|--------------------------------|--------------------------------|(x2) 
A|7-------------------------------|--------------------------------| 
E|5-----6-----5-------------------|5-----8-----4-------------------| 
A|------6-----5-------------------|5-----8-----4-------------------| 


Break Part 2 
(Guitar 1) 
e|--------------------------------|--------------------------------| 
B|--------------------------------|--------------------------------| 
G|--------------------------------|--------------------------------| 
D|--------------------------------|--------------------------------|(x3) 
A|7-7-7---------------------------|--------------------------------| 
E|5-5-5-6-6-6-5-5-5-5-5-5-5-5-5-5-|5-5-5-8-8-8-4-4-4-4-4-4-4-4-4-4-| 
A|------6-6-6-5-5-5-5-5-5-5-5-5-5-|5-5-5-8-8-8-4-4-4-4-4-4-4-4-4-4-| 

(Guitar 2) 
e|------------------------------------------------|------------------------------------------------| 
B|------------------------------------------------|------------------------------------------------| 
G|------------------------------------------------|------------------------------------------------| 
D|12-12-12-12-12-12-12-12-12-12-12-12-12-12-12-12-|12-12-12-12-12-12-12-12-12-12-12-12-12-12-12-12-|(x3) 
A|------------------------------------------------|------------------------------------------------| 
E|10-10-10-10-10-10-10-10-10-10-10-10-10-10-10-10-|10-10-10-10-10-10-10-10-10-10-10-10-10-10-10-10-| 
A|------------------------------------------------|------------------------------------------------| 

(Guitar 1) 
e|--------------------------------|--------------------------------| 
B|--------------------------------|--------------------------------| 
G|--------------------------------|--------------------------------| 
D|--------------------------------|--------------------------------| 
A|7-7-7---------------------------|--------------------------------| 
E|5-5-5-6-6-6-5-5-5-5-5-5-5-5-5-5-|5-5-5-8-8-8-4-4-4-4-4-4-4-4-----| 
A|------6-6-6-5-5-5-5-5-5-5-5-5-5-|5-5-5-8-8-8-4-4-4-4-4-4-4-4-----| 

(Guitar 2) 
e|------------------------------------------------|------------------------------------------------| 
B|------------------------------------------------|------------------------------------------------| 
G|------------------------------------------------|------------------------------------------------| 
D|12-12-12-12-12-12-12-12-12-12-12-12-12-12-12-12-|12-12-12-12-12-12-12-12-12-12-12-12-12-12-------| 
A|------------------------------------------------|------------------------------------------------| 
E|10-10-10-10-10-10-10-10-10-10-10-10-10-10-10-10-|10-10-10-10-10-10-10-10-10-10-10-10-10-10-------| 
A|------------------------------------------------|------------------------------------------------| 

Breakdown 2 
(Guitar 1 and 2)                    
e|--------------------------------|----------------------------------------| 
B|--------------------------------|----------------------------------------| 
G|--------------------------------|----------------------------------------| 
D|--------------------------------|----------------------------------------|(x4) 
A|--------------------------------|----------------------------------------| 
E|5-----5-----5-----5-----5-----5-|--5-----5-----5-----5---0-0-0---0-0-0---| 
A|1---1-1---1-1---1-1---1-1---1-1-|--0---0-0---0-0---0-0---0-0-0---0-0-0---| 
      PM    PM    PM    PM    PM         PM    PM    PM    PM---|  PM---| 


************************************ 

| p   Pull-off 
| PM  Palm mute 
| N   Tremolo 

************************************ 
    	
fixar
fixar inscrever-se

enviado porenviado por: gustsilva
cifra enviadaCorrigida por: sem correções
logo top cifrasComente
ico música do artistaMúsicas deste artista
ico curtiuCurtiu?
ico destaqueDestaque
Petaxxon Comunicação Online

Cifras.com.br - Melhor e mais completo site de cifras e tablaturas do Brasil Mais de 1 milhão de acordes de músicas cadastradas desde 2003
As informações contidas no nosso site são colaborações de seus usuários e podem conter erros, sendo assim, não nos responsabilizamos sobre nenhuma destas.

close
menos
mais
close
Cor dos acordes:

Cor da letra:

close
Alinhar acordes a direita Alinhar acordes a esquerda Alinhar acordes em baixo Alinhar acordes no topo
close
  Mostrar todos os acordes Esconder acordes muito fáceis Esconder acordes fáceis Esconder acordes intermediários
redimensionar
glossário