Cifras e Tablaturas
Titãs

Titãs

Igreja Tablatura Verificada

Compositor : (Nando Reis)

Cifras Cancelar Versão de Impressão
cifras

Titãs - Igreja

fixar na tela  
Exibindo: vídeo-aula ver clipes redimensionar

Tom:

  
Intro e verso Riff 1: C#5 D5 C#5 D5 A#5 B5 A#5 B5 (2x) 

e|--------------------------|---------------------------14-| 
B|--7-5/10-7-8/10-8\7-------|--7-8/10-7-8/10-8-7-----------| 
G|--------------------9-7---|--------------------9-7/14----| 
D|------------------------7-|------------------------------| 
A|--------------------------|------------------------------| 
E|--------------------------|------------------------------| 

Verso: 

e|--------------------|-----------------| 
B|------7-10-----7-10-|-6/7-----6/7-----| 
G|--6/7------6/7------|-----7-------7---| 
D|--------------------|-------9-------9-| 
A|--------------------|-----------------| 
E|--------------------|-----------------| 


Intro e verso Riff 1: C#5 D5 C#5 D5 A#5 B5 A#5 B5 (2x) 

e|--------------------------|---------------------------14-| 
B|--7-5/10-7-8/10-8\7-------|--7-8/10-7-8/10-8-7-----------| 
G|--------------------9-7---|--------------------9-7/14----| 
D|------------------------7-|------------------------------| 
A|--------------------------|------------------------------| 
E|--------------------------|------------------------------| 


Verso: C#5 D5 C#5 D5 A#5 B5 A#5 B5 (2x) 

e|--------------------|-----------------| 
B|------7-10-----7-10-|-6/7-----6/7-----| 
G|--6/7------6/7------|-----7-------7---| 
D|--------------------|-------9-------9-| 
A|--------------------|-----------------| 
E|--------------------|-----------------| 

Refrão: (2x) 

Guitarra 1 

e|--------------------------------------------------| 
B|-10-10-10-10-10-10-10-10-10-10-10-10-10-10-10-10--| 
G|--------------------------------------------------| 
D|--------------------------------------------------| 
A|--------------------------------------------------| 
E|--------------------------------------------------| 

e|---------------------------------| 
B|-7-7-7-7-7-7-7-7-7-7-7-7-7-7-7-7-| 
G|---------------------------------| 
D|---------------------------------| 
A|---------------------------------| 
E|---------------------------------| 

Guitarra 2: 

e|-13-13-13-13-13-13-13-13-13-13-13-13-13-13-13-13-| 
B|-------------------------------------------------| 
G|-------------------------------------------------| 
D|-------------------------------------------------| 
A|-------------------------------------------------| 
E|-------------------------------------------------| 

e|-14-14-14-14-14-14-14-14-14-14-14-14-14-14-14-14-| 
B|-------------------------------------------------| 
G|-------------------------------------------------| 
D|-------------------------------------------------| 
A|-------------------------------------------------| 
E|-------------------------------------------------| 

Guitarra 3: 

e|-10-10-10-10-10-10-10-10-10-10-10-10-10-10-10-10--| 
B|-10-10-10-10-10-10-10-10-10-10-10-10-10-10-10-10--| 
G|--------------------------------------------------| 
D|--------------------------------------------------| 
A|--------------------------------------------------| 
E|--------------------------------------------------| 

e|---------------------------------| 
B|-7-7-7-7-7-7-7-7-7-7-7-7-7-7-7-7-| 
G|---------------------------------| 
D|---------------------------------| 
A|---------------------------------| 
E|---------------------------------| 

Verso: C#5 D5 C#5 D5 A#5 B5 A#5 B5 (2x) 

e|--------------------|-----------------| 
B|------7-10-----7-10-|-6/7-----6/7-----| 
G|--6/7------6/7------|-----7-------7---| 
D|--------------------|-------9-------9-| 
A|--------------------|-----------------| 
E|--------------------|-----------------| 

Intro e verso Riff 1: C#5 D5 C#5 D5 A#5 B5 A#5 B5 (2x) 

e|--------------------------|---------------------------14-| 
B|--7-5/10-7-8/10-8\7-------|--7-8/10-7-8/10-8-7-----------| 
G|--------------------9-7---|--------------------9-7/14----| 
D|------------------------7-|------------------------------| 
A|--------------------------|------------------------------| 
E|--------------------------|------------------------------| 

Verso: C#5 D5 C#5 D5 A#5 B5 A#5 B5 (2x) 

e|--------------------|-----------------| 
B|------7-10-----7-10-|-6/7-----6/7-----| 
G|--6/7------6/7------|-----7-------7---| 
D|--------------------|-------9-------9-| 
A|--------------------|-----------------| 
E|--------------------|-----------------| 

Interludios: C#5 D5 C#5 D5 C#5 D5 C#5 D5 

e|------------------------------------| 
B|-9/10-10-10-10-10-10-10-10-10-10-10-| 
G|------------------------------------| 
D|------------------------------------| 
A|------------------------------------| 
E|------------------------------------| 

e|------------------------| 
B|-9/10-10-10-10-10-10-10-| 
G|------------------------| 
D|------------------------| (3x) 
A|------------------------| 
E|------------------------| 

e|------------------------------------| 
B|-9/10-10-10-10-10-10-10--9/10-10-10-| 
G|------------------------------------| 
D|------------------------------------| 
A|------------------------------------| 
E|------------------------------------| 

Refrão: C#5 D5 C#5 D5 A#5 B5 A#5 B5 C# D5 (2x) 

Guitarra 1 

e|--------------------------------------------------| 
B|-10-10-10-10-10-10-10-10-10-10-10-10-10-10-10-10--| 
G|--------------------------------------------------| 
D|--------------------------------------------------| 
A|--------------------------------------------------| 
E|--------------------------------------------------| 

e|---------------------------------| 
B|-7-7-7-7-7-7-7-7-7-7-7-7-7-7-7-7-| 
G|---------------------------------| 
D|---------------------------------| 
A|---------------------------------| 
E|---------------------------------| 

Guitarra 2: 

e|-13-13-13-13-13-13-13-13-13-13-13-13-13-13-13-13-| 
B|-------------------------------------------------| 
G|-------------------------------------------------| 
D|-------------------------------------------------| 
A|-------------------------------------------------| 
E|-------------------------------------------------| 

e|-14-14-14-14-14-14-14-14-14-14-14-14-14-14-14-14-| 
B|-------------------------------------------------| 
G|-------------------------------------------------| 
D|-------------------------------------------------| 
A|-------------------------------------------------| 
E|-------------------------------------------------| 

Guitarra 3: 

e|-10-10-10-10-10-10-10-10-10-10-10-10-10-10-10-10--| 
B|-10-10-10-10-10-10-10-10-10-10-10-10-10-10-10-10--| 
G|--------------------------------------------------| 
D|--------------------------------------------------| 
A|--------------------------------------------------| 
E|--------------------------------------------------| 

e|---------------------------------| 
B|-7-7-7-7-7-7-7-7-7-7-7-7-7-7-7-7-| 
G|---------------------------------| 
D|---------------------------------| 
A|---------------------------------| 
E|---------------------------------| 




  

cifra enviadacorrigido por:Acelot
enviado porenviada por:Electro
top 5 | titãs
top rock'n roll
Outras músicas do artista letras do(a) Titãs
Top cifras »Top artistas »
Petaxxon Comunicação Online
Cifras.com.br - Melhor e mais completo site de cifras e tablaturas do Brasil
Mais de 1 milhão de acordes de músicas cadastradas desde 2003
As informações contidas no nosso site são colaborações de seus usuários e podem conter erros, sendo assim, não nos responsabilizamos sobre nenhuma destas.
close
menos
mais
close
Cor dos acordes:

Cor da letra:

 

save
close
close
 
redimensionar