Cifras e Tablaturas
Together Pangea

Together Pangea

Gold Moon

Cifras Cancelar Versão de Impressão
cifras

Together Pangea - Gold Moon

fixar na tela  
Exibindo: vídeo-aula ver clipes redimensionar

Tom:

  
Intro 
e|--------------------------------|--------------------------------| 
b|--------------------------------|--------------------------------| 
G|7-b-9-r-7-----------------------|7-b-9-r-7-p-5-7~~~~~~~~~~~~~~~~~| 
D|--------------------------------|--------------------------------| 
A|--------------------------------|--------------------------------| 
E|--------------------------------|--------------------------------| 
  1 e + a 2 e + a 3 e + a 4 e + a  1 e + a 2 e + a 3 e + a 4 e + a 

e|--------------------------------|--------------------------------| 
b|--------------------------------|--------------------------------| 
G|7-b-9-r-7-----------------------|7-b-9-r-7-p-5-------------------| 
D|--------------------------------|----------------7~~~~~~~~~~~~~~~| 
A|--------------------------------|--------------------------------| 
E|--------------------------------|--------------------------------| 
  1 e + a 2 e + a 3 e + a 4 e + a  1 e + a 2 e + a 3 e + a 4 e + a 


Verse (palm Muted)                                First Ending 
e|--------------------------------|--------------------------------| 
e|--------------------------------|--------------------------------| 
G|--------------------------------|----------------7---7-----------| 
D|7---7---7---7---9---9---9---9---|10--10--10--10----------10--9---| 
A|--------------------------------|--------------------------------| 
E|--------------------------------|--------------------------------| 
  1 e + a 2 e + a 3 e + a 4 e + a  1 e + a 2 e + a 3 e + a 4 e + a 

e|--------------------------------|--------------------------------| 
b|--------------------------------|--------------------------------| repeat 
G|--------------------------------|--------------------7-----------| 
D|7---7---7---7---9---9---9---9---|10--10--10--10--10------10--9---| 
A|--------------------------------|--------------------------------| 
E|--------------------------------|--------------------------------| 
  1 e + a 2 e + a 3 e + a 4 e + a   1 e + a 2 e + a 3 e + a 4 e + a 

Second Ending 
e|--------------------------------|--------------------------------| 
b|--------------------------------|--------------------------------| 
G|--------------------------------|--------------------------------| 
D|10--10--10--10--10--10--10--10--|10--10--10--10--10--10--10--10--| 
A|--------------------------------|--------------------------------| 
E|--------------------------------|--------------------------------| 
  1 e + a 2 e + a 3 e + a 4 e + a  1 e + a 2 e + a 3 e + a 4 e + a 

Chorus (x2) 
e|5-p-3-------3-------3-----------|--------------------------------| 
b|--------5---------------5-p-3---|--------------------------------| 
G|--------------------------------|5---5---5-h-7---7---------------| 
D|--------------------------------|--------------------------------| 
A|--------------------------------|--------------------------------| 
E|--------------------------------|--------------------------------| 
  1 e + a 2 e + a 3 e + a 4 e + a  1 e + a 2 e + a 3 e + a 4 e + a 

e|5-p-3-------3-------3-----------|--------------------------------|        |--------------------------------| 
b|--------5---------------5-p-3---|--------------------------------| repeat |--------------------------------| 
G|--------------------------------|0-h-2---2---2---0-h-2---2---2---|        |0-h-2---2---2---0-h-2---2---2---| 
D|--------------------------------|--------------------------------|        |--------------------------------| 
A|--------------------------------|--------------------------------|        |--------------------------------| 
E|--------------------------------|--------------------------------|        |--------------------------------| 
  1 e + a 2 e + a 3 e + a 4 e + a  1 e + a 2 e + a 3 e + a 4 e + a           1 e + a 2 e + a 3 e + a 4 e + a 

Verse (palm Muted)                                First Ending 
e|--------------------------------|--------------------------------| 
e|--------------------------------|--------------------------------| 
G|--------------------------------|----------------7---7-----------| 
D|7---7---7---7---9---9---9---9---|10--10--10--10----------10--9---| 
A|--------------------------------|--------------------------------| 
E|--------------------------------|--------------------------------| 
  1 e + a 2 e + a 3 e + a 4 e + a  1 e + a 2 e + a 3 e + a 4 e + a 

e|--------------------------------|--------------------------------| 
b|--------------------------------|--------------------------------| repeat 
G|--------------------------------|--------------------7-----------| 
D|7---7---7---7---9---9---9---9---|10--10--10--10--10------10--9---| 
A|--------------------------------|--------------------------------| 
E|--------------------------------|--------------------------------| 
  1 e + a 2 e + a 3 e + a 4 e + a   1 e + a 2 e + a 3 e + a 4 e + a 

Second Ending 
e|--------------------------------|--------------------------------| 
b|--------------------------------|--------------------------------| 
G|--------------------------------|--------------------------------| 
D|10--10--10--10--10--10--10--10--|10--10--10--10--10--10--10--10--| 
A|--------------------------------|--------------------------------| 
E|--------------------------------|--------------------------------| 
  1 e + a 2 e + a 3 e + a 4 e + a  1 e + a 2 e + a 3 e + a 4 e + a 

Chorus (x2) 
e|5-p-3-------3-------3-----------|--------------------------------| 
b|--------5---------------5-p-3---|--------------------------------| 
G|--------------------------------|5---5---5-h-7---7---------------| 
D|--------------------------------|--------------------------------| 
A|--------------------------------|--------------------------------| 
E|--------------------------------|--------------------------------| 
  1 e + a 2 e + a 3 e + a 4 e + a  1 e + a 2 e + a 3 e + a 4 e + a 

e|5-p-3-------3-------3-----------|--------------------------------|        |--------------------------------| 
b|--------5---------------5-p-3---|--------------------------------| repeat |--------------------------------| 
G|--------------------------------|0-h-2---2---2---0-h-2---2---2---|        |0-h-2---2---2---0-h-2---2---2---| 
D|--------------------------------|--------------------------------|        |--------------------------------| 
A|--------------------------------|--------------------------------|        |--------------------------------| 
E|--------------------------------|--------------------------------|        |--------------------------------| 
  1 e + a 2 e + a 3 e + a 4 e + a  1 e + a 2 e + a 3 e + a 4 e + a           1 e + a 2 e + a 3 e + a 4 e + a 

bridge 
e|--------------------------------|--------------------------------| 
b|--------------------------------|--------------------------------| 
G|--------------------------------|--------------------------------| 
D|--------------------------------|--------------------------------| 
A|3-------3-------3-------3-------|3-------3-------3-------3-------| 
E|--------------------------------|--------------------------------| 
  1 e + a 2 e + a 3 e + a 4 e + a  1 e + a 2 e + a 3 e + a 4 e + a 

Solo 
e|--------------------------------|--------------------------------| 
b|--------------------------------|--------------------------------| 
G|2-0-0-4-0-0-5-0-0-7-0-0-5-0-0---|--4-0-0-5-0-0-7-0-0-9-0-0-9-0-0-| 
D|--------------------------------|--------------------------------| 
A|--------------------------------|--------------------------------| 
E|--------------------------------|--------------------------------| 
  1 e + a 2 e + a 3 e + a 4 e + a  1 e + a 2 e + a 3 e + a 4 e + a 

e|----------------5---5---5-------|------5---5-8---9---9---9-8-5---| 
b|------5---5-8-------------8-5---|8---8---------------------------| 
G|5---5---------------------------|--------------------------------| 
D|--------------------------------|--------------------------------| 
A|--------------------------------|--------------------------------| 
E|--------------------------------|--------------------------------| 
  1 e + a 2 e + a 3 e + a 4 e + a  1 e + a 2 e + a 3 e + a 4 e + a 

e|10b12r10--8--10-------10--8---10--|10b12r10--8-----------------------|--------------------------------| 
b|----------------------------------|--------------10------------------|10--108---8---------------------| 
G|----------------------------------|----------------------------------|------------9---9-7---7-----7---| 
D|----------------------------------|----------------------------------|------------------------10------| 
A|----------------------------------|----------------------------------|--------------------------------| 
E|----------------------------------|----------------------------------|--------------------------------| 
    1 e + a 2 e + a 3 e + a 4 e + a    1 e + a 2 e + a 3 e + a 4 e + a  1 e + a 2 e + a 3 e + a 4 e + a 

Chorus (x2) 
e|5-p-3-------3-------3-----------|--------------------------------| 
b|--------5---------------5-p-3---|--------------------------------| 
G|--------------------------------|5---5---5-h-7---7---------------| 
D|--------------------------------|--------------------------------| 
A|--------------------------------|--------------------------------| 
E|--------------------------------|--------------------------------| 
  1 e + a 2 e + a 3 e + a 4 e + a  1 e + a 2 e + a 3 e + a 4 e + a 

e|5-p-3-------3-------3-----------|--------------------------------|        |--------------------------------| 
b|--------5---------------5-p-3---|--------------------------------| repeat |--------------------------------| 
G|--------------------------------|0-h-2---2---2---0-h-2---2---2---|        |0-h-2---2---2---0-h-2---2---2---| 
D|--------------------------------|--------------------------------|        |--------------------------------| 
A|--------------------------------|--------------------------------|        |--------------------------------| 
E|--------------------------------|--------------------------------|        |--------------------------------| 
  1 e + a 2 e + a 3 e + a 4 e + a  1 e + a 2 e + a 3 e + a 4 e + a           1 e + a 2 e + a 3 e + a 4 e + a 


************************************ 

| p  Pull-off 
| r  Release 
| b  Bend 
| ~  Vibrato 
| h  Hammer-on 

************************************ 
  

top 5 | together pangea
top rock'n roll
Outras músicas do artista letras do(a) Together Pangea
Top cifras »Top artistas »
Petaxxon Comunicação Online
Cifras.com.br - Melhor e mais completo site de cifras e tablaturas do Brasil
Mais de 1 milhão de acordes de músicas cadastradas desde 2003
As informações contidas no nosso site são colaborações de seus usuários e podem conter erros, sendo assim, não nos responsabilizamos sobre nenhuma destas.
close
menos
mais
close
Cor dos acordes:

Cor da letra:

 

save
close
close
 
redimensionar