Cifras e Tablaturas
Tom Jobim

Tom Jobim

Samba do Avião Tablatura Verificada

Ano: 2005
Album : Novo Millennium

Cifras Cancelar Versão de Impressão
cifras

Tom Jobim - Samba do Avião

fixar na tela  
Exibindo: vídeo-aula ver clipes redimensionar
  Intro 

--10--10--8--5--8--12--10--8--5--5--3--5------------------------ 
--10--10--8--5--8--12--10--8--5--5--3--5------------------------ 
--9---9---7--4--7--11--9---7--4--4--2--4------------------------ 
--0---0---0--0--0--0---0---0--0--0--0--0------------------------ 
---------------------------------------------------------------- 
---------------------------------------------------------------- 



--10--8--5--8--12--10--8--10--10--13--10------------------------ 
--10--8--5--8--12--10--8--10--10--13--10------------------------ 
--9---7--4--7--11--9---7--9---9---12--9------------------------- 
--0---0--0--0--0---0---0--0---0---0---0------------------------- 
---------------------------------------------------------------- 
---------------------------------------------------------------- 



Acorde 


---------6------------------------------------------------------ 
-------7-------------------------------------------------------- 
-----6---------------------------------------------------------- 
---5------------------------------------------------------------ 
-0-------------------------------------------------------------- 
---------------------------------------------------------------- 

Estrofe 

---------------------------------------------------------------- 
-2-0----0--3--2------------------------------------------------- 
-2----3----0--1------------------------------------------------- 
-0----2----4--0------------------------------------------------- 
---------------------------------------------------------------- 
-2----3----0--1------------------------------------------------- 






-0----------0--2--2--------------------------------------------- 
-3--3--2--3-------3--3------------------------------------------ 
-2-----4----------4--3------------------------------------------ 
-------5-------------2------------------------------------------ 
-------0-------------------------------------------------------- 
-2----------------4--3------------------------------------------ 



-9---7----12--11--10--9------7---------------------------------- 
-10----------------------10--7---------------------------------- 
-7-----------------------9---8---------------------------------- 
-------------------------10------------------------------------- 
-9------0----------------9-------------------------------------- 
-----------------------------7---------------------------------- 


  

-------------------------------------0-------------------------- 
-2----0----0--3----------2---------------------3-----------2--3- 
-2-------3--------0---0-------1----1------2--------------3----3- 
-0-------2--------4---4-------0----0------0------------5-------- 
--------------------------------------------------0--0---------- 
-2--2----3------0---0-------1----1-----2-----2------------------ 


-0----2--2---------2---0---------------------------------------- 
--------------3--------3---------------------------------------- 
--------------4--------3---------------------------------------- 
----0----------------------------------------------------------- 
---------------------------------------------------------------- 
------------4----4-----3---------------------------------------- 



Refrão 


-5-------------5------------------------------------------------ 
-8--8/9--8-----8--9--8--5--4--3-----5-----3--------------------- 
-7-------7--7--7-----7--7-----4--4--7--4--4--------------------- 
---------8-----------8--7-----2-----7-----2--------------------- 
-7-------7-----7-----7------------------------------------------ 
------------------------7-----3-----7-----3--------------------- 




-------------------------5--5--7--7----------------------------- 
-7--7--8--8--5--5--7--7--5--5--8--8--8--8--10--10--------------- 
-7--7--8--8--3--3--5--5--5--5--8--8--8--8--9---9---------------- 
-6--6--7--7--3--3--5--5--5-----7--7--7--7--10--10--------------- 
-------------------------------------8--8--9---9---------------- 
-7--7--8--8--4--4--6--6----------------------------------------- 




----------------------2-----2--5p2--5/7--7--10--7--------------- 
------------2---2--------3---------------7------7--------------- 
-----5--------5--------------------------7------7--------------- 
---4---4---------------------------------6------6--------------- 
-2--------0--------0-------------------------------------------- 
---------------------------------------------------------------- 



-10--9------10--10---------------------------------------------- 
-10--10----7----7----------------------------------------------- 
-9---9----7-----7----------------------------------------------- 
---------0------------------------------------------------------ 
-0-------------------------------------------------------------- 
----------------------------------------------------------------
  

top 5 | tom jobim
top mpb
Outras músicas do artista letras do(a) Tom Jobim
5.
Wave
Top cifras »Top artistas »
Petaxxon Comunicação Online
Cifras.com.br - Melhor e mais completo site de cifras e tablaturas do Brasil
Mais de 1 milhão de acordes de músicas cadastradas desde 2003
As informações contidas no nosso site são colaborações de seus usuários e podem conter erros, sendo assim, não nos responsabilizamos sobre nenhuma destas.
close
menos
mais
close
Cor dos acordes:

Cor da letra:

 

save
close
close
 
redimensionar