Cifras e Tablaturas
Tom Misch

Tom Misch

Watch Me Dance

Cifras Cancelar Versão de Impressão
cifras

Tom Misch - Watch Me Dance

fixar na tela  
Exibindo: vídeo-aula ver clipes redimensionar

Tom:

  
Tuning:Standard 

Intro/Verse: 
e|--------|--------|------------|------------|--------|----------| 
B|--------|--------|------------|------------|--------|----------| 
G|--5-5-5-|--5-5-5-|---8--8--8--|---8--8--8--|--3-3-3-|--3-3-3---| 
D|--------|--------|------------|------------|--------|----------| 
A|-6-6-6-6|-6-6-6-6|-10-10-10-10|-10-10-10-10|-4-4-4-4|-4-4-4-4--| 
E|4-------|4-------|8-----------|8-----------|2-------|2---------| 

e|--------|----------|------------|------------|-----------------| 
B|--------|----------|------------|------------|-----------------| 
G|--6-6-6-|--6----8--|---9--9--9--|---9--9--9--|---8--8--8-------| 
D|--------|----------|------------|------------|-----------------| 
A|-8-8-8-8|-8-8-11-11|-11-11-11-11|-11-11-11-11|-11-11-11-11-----| 
E|6-------|6---8-----|9-----------|9-----------|8----------------| 

e|------------|--------|--------|------------|-------------------| 
B|------------|--------|--------|------------|-------------------| 
G|---8--8--8--|--7-7-7-|--7-7-7-|---9--9--9--|---9--9--9---------| 
D|------------|--------|--------|------------|-------------------| 
A|-11-11-11-11|-8-8-8-8|-8-8-8-8|-11-11-11-11|-11-11-11-11-------| 
E|8-----------|6-------|6-------|9-----------|9------------------| 


Pre-Chorus/Chorus 
e|(8)---(8)---(6)--|---(5)-(4)-(4)--|(4)---(6)----2h4-|----------| 
B|-9-----9-----6h8-|----7---6---6---|-4-----6-----2---|----------| 
G|-10----9-----8---|----7---6---5---|-6-----8-----3---|----------| 
D|-10----8-----6---|----5---4---4---|-6-----8-----4---|----------| 
A|-------------8---|----7---6-------|(4)---(6)--------|----------| 
E|-9-----8---------|------------4---|-6-----8----(2)--|----------| 

e|(8)---(8)---(6)--|---(5)-(4)-(4)--|(4)---(6)---(8)--|----------| 
B|-9-----9-----6h8-|----7---6---6---|-4-----6-----9---|----------| 
G|-10----9-----8---|----7---6---5---|-6-----8-----8h10|----------| 
D|-10----8-----6---|----5---4---4---|-6-----8-----8---|----------| 
A|-------------8---|----7---6-------|(4)---(6)----9---|----------| 
E|-9-----8---------|------------4---|-6-----8---------|----------| 


Acoustic Solo: 
e|---------------------------------------------------------------| 
B|--------11/13\11~-----13/14\13~-----14-16-16~-----16-18-21~----| 
G|13~------------------------------------------------------------| 
D|---------------------------------------------------------------| 
A|---------------------------------------------------------------| 
E|---------------------------------------------------------------| 

e|19-18-16-18-16-14-16-14-12-14-12-11-12-11----11----------------| 
B|------------------------------------------14----14-12-14-12-11-| 
G|---------------------------------------------------------------| 
D|---------------------------------------------------------------| 
A|---------------------------------------------------------------| 
E|---------------------------------------------------------------| 

e|---------------------------------------------------------------| 
B|13-11-9-4h6-4-2-1----------------------------------------------| 
G|------------------1h3-1~------1-3/5-1h3/4\3-1-----1------------| 
D|--------------------------1-3-----------------3-1---3-1-3------| 
A|----------------------------------------------------------1/2\1| 
E|---------------------------------------------------------------| 

e|---------------------------------------------------------------| 
B|---------------------------------------------------------------| 
G|---------------------------------------------------------------| 
D|---------------------------------------------------------------| 
A|1-3-5-4~---6~---7~---------------------------------------------| 
E|---------------------------------------------------------------| 


Record Solo: (Transcribed how I find it easiest to play) 
e|----------------------------------16~-----16-18-20brbr---------| 
B|--------------------16~-----16-18------------------------------| 
G|13-15-13~-----15-17--------------------------------------------| 
D|---------------------------------------------------------------| 
A|---------------------------------------------------------------| 
E|---------------------------------------------------------------| 

e|---------------------------------------------------------------| 
B|---------------------------------------------------------------| 
G|------11h13-11-------------------------------------------------| 
D|---13----------13------9h11/13-/13~---11-8h10-8--6h8-8------6--| 
A|11------------------11---------------------------------6h8-----| 
E|---------------------------------------------------------------| 

e|---------------------------------------------------------------| 
B|---------------------------------------------------------------| 
G|---------------------------------------------------------------| 
D|8/10-6h8-------6p4h6p4-----------------------------------------| 
A|-----------------------6\1-----6-------------------------------| 
E|-----------------------------4---4-6-7~---6~---4~---2~---------| 


************************************ 

| (n)  Ghost note 
| /  slide up 
| \  slide down 
| h  hammer-on 
| p  pull-off 
| ~  vibrato 
| x  Mute note 
| b  Bend 
| r  Bend release 

************************************ 
  

top 5 | tom misch
top rock'n roll
Outras músicas do artista letras do(a) Tom Misch
Top cifras »Top artistas »
Petaxxon Comunicação Online
Cifras.com.br - Melhor e mais completo site de cifras e tablaturas do Brasil
Mais de 1 milhão de acordes de músicas cadastradas desde 2003
As informações contidas no nosso site são colaborações de seus usuários e podem conter erros, sendo assim, não nos responsabilizamos sobre nenhuma destas.
close
menos
mais
close
Cor dos acordes:

Cor da letra:

 

save
close
close
 
redimensionar