Cifras e Tablaturas
Tom Petty

Tom Petty

Jammin Me

Ano: 2000
Album : Anthology: Through the Years
Compositor : (Tom Petty and the Heartbreakers)

Cifras Cancelar Versão de Impressão
cifras

Tom Petty - Jammin Me

fixar na tela  
Exibindo: vídeo-aula ver clipes redimensionar
   Intro 
  Q=124 
             A/E       E         A/E       E          A/E       E         A/E 
 4/4 
  Gtr I (El. Gtr. w/ light dist.) 
  H    Q  E   E    +E  E Q  Q.    E    +E  E Q  Q   E  E    +E  E Q  Q.    E 
|-------------0-|--(0)-0-0--0-----0-|--(0)-0-0--0---0--0-|--(0)-0-0--0-----0-| 
|---------x\--2-|--(2)-0-0--0-----2-|--(2)-0-0--0---0--2-|--(2)-0-0--0-----2-| 
|---------x\--2-|--(2)-1-1--1-----2-|--(2)-1-1--1---1--2-|--(2)-1-1--1-----2-| 
|---------x\--2-|--(2)-2-2--2-----2-|--(2)-2-2--2---2--2-|--(2)-2-2--2-----2-| 
|---------------|------2-2--2-------|------2-2--2---2----|------2-2--2-------| 
|-------------0-|--(0)-0-0--0-----0-|--(0)-0-0--0---0--0-|--(0)-0-0--0-----0-| 
| 
| Gtr II (El. Gtr. w/ dist.) 
| H    Q  E   E    +E  E Q  Q.    E    +E  E Q  Q   E  E    +E  E Q  Q.    E 
|---------------|-------------------|--------------------|-------------------| 
|------------10-|-(10)-9-9--9----10-|-(10)-9-9--9--10-10-|-(10)-9-9--9----10-| 
|-------------9-|--(9)-9-9--9-----9-|--(9)-9-9--9---9--9-|--(9)-9-9--9-----9-| 
|------------11-|-(11)-9-9--9----11-|-(11)-9-9--9--11-11-|-(11)-9-9--9----11-| 
|---------------|-------------------|--------------------|-------------------| 
|---------------|-------------------|--------------------|-------------------| 


       E          A/E       E         A/E 
   +E  E Q  Q   E  E    +E  E Q  Q.    E 
|--(0)-0-0--0---0--0-|--(0)-0-0--0-----0-| 
|--(2)-0-0--0---0--2-|--(2)-0-0--0-----2-| 
|--(2)-1-1--1---1--2-|--(2)-1-1--1-----2-| 
|--(2)-2-2--2---2--2-|--(2)-2-2--2-----2-| 
|------2-2--2---2----|------2-2--2-------| 
|--(0)-0-0--0---0--0-|--(0)-0-0--0-----0-| 
| 
|  +E  E Q  Q   E  E    +E  E Q  Q.    E 
|--------------------|-------------------| 
|-(10)-9-9--9--10-10-|-(10)-9-9--9----10-| 
|--(9)-9-9--9---9--9-|--(9)-9-9--9-----9-| 
|-(11)-9-9--9--11-11-|-(11)-9-9--9----11-| 
|--------------------|-------------------| 
|--------------------|-------------------| 


       E          A/E       E         A/E 
   +E  E Q  Q   E  E    +E  E Q  Q.    E 
|--(0)-0-0--0---0--0-|--(0)-0-0--0-----0--| 
|--(2)-0-0--0---0--2-|--(2)-0-0--0-----2--| 
|--(2)-1-1--1---1--2-|--(2)-1-1--1-----2--| 
|--(2)-2-2--2---2--2-|--(2)-2-2--2-----2--| 
|------2-2--2---2----|------2-2--2--------| 
|--(0)-0-0--0---0--0-|--(0)-0-0--0-----0--| 
| 
|  +E  E Q  Q   E  E    +E  E Q  Q.    E 
|--------------------|--------------------| 
|-(10)-9-9--9--10-10-|-(10)-9-9--9----10--| 
|--(9)-9-9--9---9--9-|--(9)-9-9--9-----9--| 
|-(11)-9-9--9--11-11-|-(11)-9-9--9----11--| 
|--------------------|--------------------| 
|--------------------|--------------------| 


                          1st & 3rd Verses 
       E      A     D      D         A     E 
   +E  E Q  E  E  E  E      E E Q  E  E  E E 
|--(0)-0-0--0--0--0--2-||---2---------0--0-0-| 
|--(2)-0-0--0--2--2--3-||o--3---------2--2-0-| 
|--(2)-1-1--1--2--2--2-||---2---------2--2-1-| 
|--(2)-2-2--2--2--2--0-||---0---------2--2-2-| 
|------2-2--2--0--0----||o------------0--0-2-| 
|--(0)-0-0--0----------||------------------0-| 
| 
|  +E  E Q  E  E  E  E      E E Q  E  E  E E 
|-------------------10-||--10----------------| 
|-(10)-9-9--9-10-10-10-||o-10--------10-10-9-| 
|--(9)-9-9--9--9--9-11-||--11---------9--9-9-| 
|-(11)-9-9--9-11-11----||------------11-11-9-| 
|----------------------||o-------------------| 
|----------------------||--------------------| 


           A     D              A     E 
  E E Q  E  E  E  E    E E Q  E  E  E E 
|-0---------0--0--2-|--2---------0--0-0--| 
|-0---------2--2--3-|--3---------2--2-0--| 
|-1---------2--2--2-|--2---------2--2-1--| 
|-2---------2--2--0-|--0---------2--2-2--| 
|-2---------0--0----|------------0--0-2--| 
|-0-----------------|-----------------0--| 
| 
| E E Q  E  E  E  E    E E Q  E  E  E E 
|----------------10-|-10-----------------| 
|-9--------10-10-10-|-10--------10-10-9--| 
|-9---------9--9-11-|-11---------9--9-9--| 
|-9--------11-11----|-----------11-11-9--| 
|-------------------|--------------------| 
|-------------------|--------------------| 


           A     D              A     E 
  E E Q  E  E  E  E    E E Q  E  E  E E 
|-0---------0--0--2-|--2---------0--0-0-| 
|-0---------2--2--3-|--3---------2--2-0-| 
|-1---------2--2--2-|--2---------2--2-1-| 
|-2---------2--2--0-|--0---------2--2-2-| 
|-2---------0--0----|------------0--0-2-| 
|-0-----------------|-----------------0-| 
| 
| E E Q  E  E  E  E    E E Q  E  E  E E 
|----------------10-|-10----------------| 
|-9--------10-10-10-|-10--------10-10-9-| 
|-9---------9--9-11-|-11---------9--9-9-| 
|-9--------11-11----|-----------11-11-9-| 
|-------------------|-------------------| 
|-------------------|-------------------| 


           A     D              A     E 
  E E Q  E  E  E  E    E E Q  E  E  E E 
|-0---------0--0--2-|--2---------0--0-0--| 
|-0---------2--2--3-|--3---------2--2-0--| 
|-1---------2--2--2-|--2---------2--2-1--| 
|-2---------2--2--0-|--0---------2--2-2--| 
|-2---------0--0----|------------0--0-2--| 
|-0-----------------|-----------------0--| 
| 
| E E Q  E  E  E  E    E E Q  E  E  E E 
|----------------10-|-10-----------------| 
|-9--------10-10-10-|-10--------10-10-9--| 
|-9---------9--9-11-|-11---------9--9-9--| 
|-9--------11-11----|-----------11-11-9--| 
|-------------------|--------------------| 
|-------------------|--------------------| 


                      2nd, 4th & 5th Verse 
                    $ 
           A     D               A     E 
  E E Q  E  E  E  E     E E Q  E  E  E E 
|-0---------0--0--2-||--2---------0--0-0-| 
|-0---------2--2--3-||--3---------2--2-0-| 
|-1---------2--2--2-||--2---------2--2-1-| 
|-2---------2--2--0-||--0---------2--2-2-| 
|-2---------0--0----||------------0--0-2-| 
|-0-----------------||-----------------0-| 
| 
| E E Q  E  E  E  E     E E Q  E  E  E E 
|----------------10-||-10----------------| 
|-9--------10-10-10-||-10--------10-10-9-| 
|-9---------9--9-11-||-11---------9--9-9-| 
|-9--------11-11----||-----------11-11-9-| 
|-------------------||-------------------| 
|-------------------||-------------------| 


 s 
           A     D              A     E 
  E E Q  E  E  E  E    E E Q  E  E  E E 
|-0---------0--0--2-|--2---------0--0-0--| 
|-0---------2--2--3-|--3---------2--2-0--| 
|-1---------2--2--2-|--2---------2--2-1--| 
|-2---------2--2--0-|--0---------2--2-2--| 
|-2---------0--0----|------------0--0-2--| 
|-0-----------------|-----------------0--| 
| 
| E E Q  E  E  E  E    E E Q  E  E  E E 
|----------------10-|-10-----------------| 
|-9--------10-10-10-|-10--------10-10-9--| 
|-9---------9--9-11-|-11---------9--9-9--| 
|-9--------11-11----|-----------11-11-9--| 
|-------------------|--------------------| 
|-------------------|--------------------| 


           A     D              A     E 
  E E Q  E  E  E  E    E E Q  E  E  E E 
|-0---------0--0--2-|--2---------0--0-0-| 
|-0---------2--2--3-|--3---------2--2-0-| 
|-1---------2--2--2-|--2---------2--2-1-| 
|-2---------2--2--0-|--0---------2--2-2-| 
|-2---------0--0----|------------0--0-2-| 
|-0-----------------|-----------------0-| 
| 
| E E Q  E  E  E  E    E E Q  E  E  E E 
|----------------10-|-10----------------| 
|-9--------10-10-10-|-10--------10-10-9-| 
|-9---------9--9-11-|-11---------9--9-9-| 
|-9--------11-11----|-----------11-11-9-| 
|-------------------|-------------------| 
|-------------------|-------------------| 


           A     D                  A 
  E E Q  E  E  E  E    H.       +E   E 
|-0---------0--0--2-|--2--------(2)--0--| 
|-0---------2--2--3-|--3--------(3)--2--| 
|-1---------2--2--2-|--2--------(2)--2--| 
|-2---------2--2--0-|--0--------(0)--2--| 
|-2---------0--0----|----------------0--| 
|-0-----------------|-------------------| 
| 
| E E Q  E  E  E  E    H.       +E   E 
|----------------10-|-10-------(10)-----| 
|-9--------10-10-10-|-10-------(10)-10--| 
|-9---------9--9-11-|-11-------(11)--9--| 
|-9--------11-11----|---------------11--| 
|-------------------|-------------------| 
|-------------------|-------------------| 


                      Chorus 
                 A/E        E         A/E 
   +H.       +E   E     +E  E Q  Q.    E 
|--(0)-------(0)--0-||--(0)-0-0--0-----0-| 
|--(2)-------(2)--2-||--(2)-0-0--0-----2-| 
|--(2)-------(2)--2-||--(2)-1-1--1-----2-| 
|--(2)-------(2)--2-||--(2)-2-2--2-----2-| 
|--(0)-------(0)----||------2-2--2-------| 
|-----------------0-||--(0)-0-0--0-----0-| 
| 
|  +H.       +E   E     +E  E Q  Q.    E 
|-------------------||-------------------| 
|-(10)------(10)-10-||-(10)-9-9--9----10-| 
|--(9)-------(9)--9-||--(9)-9-9--9-----9-| 
|-(11)------(11)-11-||-(11)-9-9--9----11-| 
|-------------------||-------------------| 
|-------------------||-------------------| 


       E          A/E       E         A/E 
   +E  E Q  Q   E  E    +E  E Q  Q.    E 
|--(0)-0-0--0---0--0-|--(0)-0-0--0-----0--| 
|--(2)-0-0--0---0--2-|--(2)-0-0--0-----2--| 
|--(2)-1-1--1---1--2-|--(2)-1-1--1-----2--| 
|--(2)-2-2--2---2--2-|--(2)-2-2--2-----2--| 
|------2-2--2---2----|------2-2--2--------| 
|--(0)-0-0--0---0--0-|--(0)-0-0--0-----0--| 
| 
|  +E  E Q  Q   E  E    +E  E Q  Q.    E 
|--------------------|--------------------| 
|-(10)-9-9--9--10-10-|-(10)-9-9--9----10--| 
|--(9)-9-9--9---9--9-|--(9)-9-9--9-----9--| 
|-(11)-9-9--9--11-11-|-(11)-9-9--9----11--| 
|--------------------|--------------------| 
|--------------------|--------------------| 


       E          A/E       E         A/E 
   +E  E Q  Q   E  E    +E  E Q  Q.    E 
|--(0)-0-0--0---0--0-|--(0)-0-0--0-----0-| 
|--(2)-0-0--0---0--2-|--(2)-0-0--0-----2-| 
|--(2)-1-1--1---1--2-|--(2)-1-1--1-----2-| 
|--(2)-2-2--2---2--2-|--(2)-2-2--2-----2-| 
|------2-2--2---2----|------2-2--2-------| 
|--(0)-0-0--0---0--0-|--(0)-0-0--0-----0-| 
| 
|  +E  E Q  Q   E  E    +E  E Q  Q.    E 
|--------------------|-------------------| 
|-(10)-9-9--9--10-10-|-(10)-9-9--9----10-| 
|--(9)-9-9--9---9--9-|--(9)-9-9--9-----9-| 
|-(11)-9-9--9--11-11-|-(11)-9-9--9----11-| 
|--------------------|-------------------| 
|--------------------|-------------------| 


       E          A/E       E         A/E 
   +E  E Q  Q   E  E    +E  E Q  Q.    E 
|--(0)-0-0--0---0--0-|--(0)-0-0--0-----0--| 
|--(2)-0-0--0---0--2-|--(2)-0-0--0-----2--| 
|--(2)-1-1--1---1--2-|--(2)-1-1--1-----2--| 
|--(2)-2-2--2---2--2-|--(2)-2-2--2-----2--| 
|------2-2--2---2----|------2-2--2--------| 
|--(0)-0-0--0---0--0-|--(0)-0-0--0-----0--| 
| 
|  +E  E Q  Q   E  E    +E  E Q  Q.    E 
|--------------------|--------------------| 
|-(10)-9-9--9--10-10-|-(10)-9-9--9----10--| 
|--(9)-9-9--9---9--9-|--(9)-9-9--9-----9--| 
|-(11)-9-9--9--11-11-|-(11)-9-9--9----11--| 
|--------------------|--------------------| 
|--------------------|--------------------| 


       E             B   B6  B   B6B       B6B     B6    A   A6A     A6A 
   +E  E Q  E E Q    E E E E E E E E   E E E E E E E E   E E E E E E E E 
|--(0)-0-0--0-0-0--|-2-2---2-2-2---2-|-2-2---2-2-2---2-|-0-0---0-0-0---0--| 
|--(2)-0-0--0-0-0--|-4-4---4-4-4---4-|-4-4---4-4-4---4-|-2-2---2-2-2---2--| 
|--(2)-1-1--1-1-1--|-4-4---4-4-4---4-|-4-4---4-4-4---4-|-2-2---2-2-2---2--| 
|--(2)-2-2--2-2-2--|-4-4-6-4-4-4-6-4-|-4-4-6-4-4-4-6-4-|-2-2-4-2-2-2-4-2--| 
|------2-2--2-2-2--|-2-2-2-2-2-2-2-2-|-2-2-2-2-2-2-2-2-|-0-0-0-0-0-0-0-0--| 
|--(0)-0-0--0-0-0--|-----------------|-----------------|------------------| 
| 
|  +E  E Q  E E Q    E E Q   E E Q     E E Q   E E Q     E E Q   E E Q 
|------------------|---7-----7-------|-7-7-----7-------|---5-----5--------| 
|-(10)-9-9--9-9-9--|---7-----7-------|-7-7-----7-------|---5-----5--------| 
|--(9)-9-9--9-9-9--|---8-----8-------|-8-8-----8-------|---6-----6--------| 
|-(11)-9-9--9-9-9--|-----------------|-----------------|------------------| 
|------------------|-----------------|-----------------|------------------| 
|------------------|-----------------|-----------------|------------------| 


            To Coda 
      A6A     A6A/E        E         A/E 
  E E E E E E E  E     +E  E Q  Q.    E 
|-0-0---0-0-0----0--|--(0)-0-0--0-----0-| 
|-2-2---2-2-2----2--|--(2)-0-0--0-----2-| 
|-2-2---2-2-2----2--|--(2)-1-1--1-----2-| 
|-2-2-4-2-2-2-4--2--|--(2)-2-2--2-----2-| 
|-0-0-0-0-0-0-0-----|------2-2--2-------| 
|----------------0--|--(0)-0-0--0-----0-| 
| 
| E E Q   E E E  E     +E  E Q  Q.    E 
|---5-----5---------|-------------------| 
|---5-----5-----10--|-(10)-9-9--9----10-| 
|---6-----6------9--|--(9)-9-9--9-----9-| 
|---------------11--|-(11)-9-9--9----11-| 
|-------------------|-------------------| 
|-------------------|-------------------| 


       E          A/E       E         A/E 
   +E  E Q  Q   E  E    +E  E Q  Q.    E 
|--(0)-0-0--0---0--0-|--(0)-0-0--0-----0-| 
|--(2)-0-0--0---0--2-|--(2)-0-0--0-----2-| 
|--(2)-1-1--1---1--2-|--(2)-1-1--1-----2-| 
|--(2)-2-2--2---2--2-|--(2)-2-2--2-----2-| 
|------2-2--2---2----|------2-2--2-------| 
|--(0)-0-0--0---0--0-|--(0)-0-0--0-----0-| 
| 
|  +E  E Q  Q   E  E    +E  E Q  Q.    E 
|--------------------|-------------------| 
|-(10)-9-9--9--10-10-|-(10)-9-9--9----10-| 
|--(9)-9-9--9---9--9-|--(9)-9-9--9-----9-| 
|-(11)-9-9--9--11-11-|-(11)-9-9--9----11-| 
|--------------------|-------------------| 
|--------------------|-------------------| 


                                             Bridge 
  1.                      2. 
       E      A     D      A/EE               Bm             G 
   +E  E Q  E  E  E  E      E E Q  E E E E    Q  Q  E Q.     Q  Q  E Q. 
|--(0)-0-0--0--0--0--2--||--0-0-0--0-0-0-0-||-2--2--2-2----|-3--3--3-3-----| 
|--(2)-0-0--0--2--2--3-o||--2-0-0--0-0-0-0-||-3--3--3-3----|-0--0--0-0-----| 
|--(2)-1-1--1--2--2--2--||--2-1-1--1-1-1-1-||-4--4--4-4----|-0--0--0-0-----| 
|--(2)-2-2--2--2--2--0--||--2-2-2--2-2-2-2-||-4--4--4-4----|-0--0--0-0-----| 
|------2-2--2--0--0----o||----2-2--2-2-2-2-||-2--2--2-2----|-2--2--2-2-----| 
|--(0)-0-0--0-----------||--0-0-0--0-0-0-0-||--------------|-3--3--3-3-----| 
| 
|  +E  E Q  E  E  E  E      E E Q  E E E E    W              W 
|-------------------10--||-----------------||--------------|---------------| 
|-(10)-9-9--9-10-10-10-o||-10-9-9--9-9-9-9-||--------------|---------------| 
|--(9)-9-9--9--9--9-11--||--9-9-9--9-9-9-9-||--------------|---------------| 
|-(11)-9-9--9-11-11-----||-11-9-9--9-9-9-9-||--------------|---------------| 
|----------------------o||-----------------||--------------|---------------| 
|-----------------------||-----------------||--------------|---------------| 


  A              F#m            Bm             G              D          A/E 
  Q  Q  E Q.     Q  Q  E Q.     Q  Q  E Q.     Q  Q  E Q.     Q  Q  E Q  E 
|-0--0--0-0----|-2--2--2-2----|-2--2--2-2----|-3--3--3-3----|-2--2--2-2--0---| 
|-2--2--2-2----|-2--2--2-2----|-3--3--3-3----|-0--0--0-0----|-3--3--3-3--2---| 
|-2--2--2-2----|-2--2--2-2----|-4--4--4-4----|-0--0--0-0----|-2--2--2-2--2---| 
|-2--2--2-2----|-4--4--4-4----|-4--4--4-4----|-0--0--0-0----|-0--0--0-0--2---| 
|-0--0--0-0----|-4--4--4-4----|-2--2--2-2----|-2--2--2-2----|----------------| 
|--------------|-2--2--2-2----|--------------|-3--3--3-3----|------------0---| 


      E          A/E           E                            A/E 
  +E  E Q  Q.     E        +E    E    Q         Q         E E 
|-(0)-0-0--0------0-----|--(0)---0----0---------0---------0-0-| 
|-(2)-0-0--0------2-----|--(2)---0----0---------0---------0-2-| 
|-(2)-1-1--1------2-----|--(2)---1----1---------1---------1-2-| 
|-(2)-2-2--2------2-----|--(2)---2----2---------2---------2-2-| 
|-----2-2--2------------|--------2----2---------2---------2---| 
|-(0)-0-0--0------0-----|--(0)---0----0---------0---------0-0-| 
| 
| Gtr II 
|  H       Q   E  E        +E    E    E    E    E     +E  Q 
|-----------------------|-------------------------------------| 
|-----------------------|-------12---12---12------------------| 
|----------------11b13==|=(11)-(11)-(11)-(11)r-11b13r(11)-9---| 
|-----------------------|-------------------------------------| 
|-----------------------|-------------------------------------| 
|-----------------------|-------------------------------------| 


        E         A/E       E                    A/E 
  +E    E Q  Q.   E   +E     E  Q    Q         E E 
|-(0)---0-0--0----0-|-(0)----0--0----0---------0-0--| 
|-(2)---0-0--0----2-|-(2)----0--0----0---------0-2--| 
|-(2)---1-1--1----2-|-(2)----1--1----1---------1-2--| 
|-(2)---2-2--2----2-|-(2)----2--2----2---------2-2--| 
|-------2-2--2------|--------2--2----2---------2----| 
|-(0)---0-0--0----0-|-(0)----0--0----0---------0-0--| 
| 
|  W                   E     E  E E  E     +E  Q 
|-------------------|-------------------------------| 
|-------------------|-------------------------------| 
|-11b13-------------|-11b13-11-11---11b13r(11)-9----| 
|-------------------|-------------------------------| 
|-------------------|-------------------------------| 
|-------------------|-------------------------------| 


      E         A/E       E             A/E 
  +E  E Q  Q.   E   +E    E Q   Q     E E 
|-(0)-0-0--0----0-|-(0)---0-0---0-----0-0----| 
|-(2)-0-0--0----2-|-(2)---0-0---0-----0-2----| 
|-(2)-1-1--1----2-|-(2)---1-1---1-----1-2----| 
|-(2)-2-2--2----2-|-(2)---2-2---2-----2-2----| 
|-----2-2--2------|-------2-2---2-----2------| 
|-(0)-0-0--0----0-|-(0)---0-0---0-----0-0----| 
| 
|  W                 E  a E E E E   E E E 
|-----------------|--------------------------| 
|-----------------|---------5-5--------------| 
|-----------------|-----2s4-----2b4-2-0-2b4==| 
|-----------------|--------------------------| 
|-----------------|--------------------------| 
|-----------------|--------------------------| 


                                      D.S. al Coda 
       E              A/E     E         A       D 
  +E   E Q      Q.    E   +E  E Q     E E E     E 
|-(0)--0-0------0-----0-|-(0)-0-0-----0-0-0-----2--|| 
|-(2)--0-0------0-----2-|-(2)-0-0-----0-2-2-----3--|| 
|-(2)--1-1------1-----2-|-(2)-1-1-----1-2-2-----2--|| 
|-(2)--2-2------2-----2-|-(2)-2-2-----2-2-2-----0--|| 
|------2-2------2-------|-----2-2-----2-0-0--------|| 
|-(0)--0-0------0-----0-|-(0)-0-0-----0------------|| 
| 
| +E   E E E   +E  Q  E   +E  E S S E E E E     E 
|------0-0---------0----|--------------------------|| 
|---------------------3-|-(3)-3--------------------|| 
|-(2)r-----2b4-(2)----4-|-(4)-4-4s2p0-2p0----------|| 
|-----------------------|--------------------------|| 
|-----------------------|--------------------------|| 
|-----------------------|-----------------3b3.5-0--|| 


 Outro 
  & 
  A/E         A/E     E         A/E     E         A/E     E         A/E 
  E E Q  Q.   E   +E  E Q  Q  E E   +E  E Q  Q.   E   +E  E Q  Q  E  E 
|-0-0-0--0----0-|-(0)-0-0--0--0-0-|-(0)-0-0--0----0-|-(0)-0-0--0--0--0--| 
|-2-0-0--0----2-|-(2)-0-0--0--0-2-|-(2)-0-0--0----2-|-(2)-0-0--0--0--2--| 
|-2-1-1--1----2-|-(2)-1-1--1--1-2-|-(2)-1-1--1----2-|-(2)-1-1--1--1--2--| 
|-2-2-2--2----2-|-(2)-2-2--2--2-2-|-(2)-2-2--2----2-|-(2)-2-2--2--2--2--| 
|---2-2--2------|-----2-2--2--2---|-----2-2--2------|-----2-2--2--2-----| 
|-0-0-0--0----0-|-(0)-0-0--0--0-0-|-(0)-0-0--0----0-|-(0)-0-0--0--0--0--| 
| 
| W                W                 W                 H       Q  E  E 
|---------------|-----------------|-----------------|---------------12--| 
|---------------|-----------------|-----------------|---------------12--| 
|---------------|-----------------|-----------------|-------------------| 
|---------------|-----------------|-----------------|-------------------| 
|---------------|-----------------|-----------------|-------------------| 
|---------------|-----------------|-----------------|-------------------| 


       E         A/E     E             A/E 
   +E  E Q  Q.   E   +E  E Q   Q     E  E 
|--(0)-0-0--0----0-|-(0)-0-0---0-----0--0-| 
|--(2)-0-0--0----2-|-(2)-0-0---0-----0--2-| 
|--(2)-1-1--1----2-|-(2)-1-1---1-----1--2-| 
|--(2)-2-2--2----2-|-(2)-2-2---2-----2--2-| 
|------2-2--2------|-----2-2---2-----2----| 
|--(0)-0-0--0----0-|-(0)-0-0---0-----0--0-| 
| 
|  +W                 H        E  E  E  E 
|-(12)-------------|----------12-12-12-12-| 
|-(12)-------------|----------12-12-12-12-| 
|------------------|----------------------| 
|------------------|----------------------| 
|------------------|----------------------| 
|------------------|----------------------| 


       E         A/E     E             A/E 
   +E  E Q  Q.   E   +E  E Q   Q     E  E 
|--(0)-0-0--0----0-|-(0)-0-0---0-----0--0--| 
|--(2)-0-0--0----2-|-(2)-0-0---0-----0--2--| 
|--(2)-1-1--1----2-|-(2)-1-1---1-----1--2--| 
|--(2)-2-2--2----2-|-(2)-2-2---2-----2--2--| 
|------2-2--2------|-----2-2---2-----2-----| 
|--(0)-0-0--0----0-|-(0)-0-0---0-----0--0--| 
| 
|  +H       H         H        E  E  E  E 
|-(12)-------------|----------12-12-12-12--| 
|-(12)-------------|----------12-12-12-12--| 
|------------------|-----------------------| 
|------------------|-----------------------| 
|------------------|-----------------------| 
|------------------|-----------------------| 


      E           A/E     E                    A/E 
  +E   E  Q  Q.   E   +E  E  Q      Q        E  E 
|-(0)--0--0--0----0-|-(0)-0--0------0--------0--0----| 
|-(2)--0--0--0----2-|-(2)-0--0------0--------0--2----| 
|-(2)--1--1--1----2-|-(2)-1--1------1--------1--2----| 
|-(2)--2--2--2----2-|-(2)-2--2------2--------2--2----| 
|------2--2--2------|-----2--2------2--------2-------| 
|-(0)--0--0--0----0-|-(0)-0--0------0--------0--0----| 
| 
|  E   Q.    H         Q     Q      E     E  E  E 
|-12--12------------|--------------------------------| 
|-12--12------------|-------12-----12----12-12-12----| 
|-------------------|-------11b13--11b13-11--9-11b13-| 
|-------------------|--------------------------------| 
|-------------------|--------------------------------| 
|-------------------|--------------------------------| 


      E          A/E         E                    A/E 
  +E  E Q  Q.     E      +E   E    Q   Q        E  E 
|-(0)-0-0--0------0----|-(0)--0----0---0--------0--0--| 
|-(2)-0-0--0------2----|-(2)--0----0---0--------0--2--| 
|-(2)-1-1--1------2----|-(2)--1----1---1--------1--2--| 
|-(2)-2-2--2------2----|-(2)--2----2---2--------2--2--| 
|-----2-2--2-----------|------2----2---2--------2-----| 
|-(0)-0-0--0------0----|-(0)--0----0---0--------0--0--| 
| 
|  H       Q   E  E       E   Q.       E     E  E  E 
|----------------------|------------------------------| 
|----------------12----|-----12-------12----12-12-12--| 
|----------------11b13-|-----11b13----11b13-11--9--9--| 
|----------------------|------------------------------| 
|----------------------|------------------------------| 
|----------------------|------------------------------| 


       E                A/E       E              A/E 
   +E  E Q   Q.          E    +E  E Q   Q      E  E 
|--(0)-0-0---0-----------0-|--(0)-0-0---0------0--0-| 
|--(2)-0-0---0-----------2-|--(2)-0-0---0------0--2-| 
|--(2)-1-1---1-----------2-|--(2)-1-1---1------1--2-| 
|--(2)-2-2---2-----------2-|--(2)-2-2---2------2--2-| 
|------2-2---2-------------|------2-2---2------2----| 
|--(0)-0-0---0-----------0-|--(0)-0-0---0------0--0-| 
| 
|  +Q    Q   E     E  E  E    +Q    Q   Q      E  E 
|--------------------------|------------------------| 
|-(12)------12----12-12-12-|-(12)------12-----12-12-| 
|--(9)------11b13-11--9--9-|--(9)------11b13--11--9-| 
|--------------------------|------------------------| 
|--------------------------|------------------------| 
|--------------------------|------------------------| 


       E         A/E     E         A/E 
   +E  E Q  Q.   E   +E  E Q  Q  E E 
|--(0)-0-0--0----0-|-(0)-0-0--0--0-0--*| 
|--(2)-0-0--0----2-|-(2)-0-0--0--0-2--*| 
|--(2)-1-1--1----2-|-(2)-1-1--1--1-2--*| 
|--(2)-2-2--2----2-|-(2)-2-2--2--2-2--*| 
|------2-2--2------|-----2-2--2--2----*| 
|--(0)-0-0--0----0-|-(0)-0-0--0--0-0--*| 
| 
|  +Q    Q  H         W 
|------------------|------------------*| 
|-(12)-------------|------------------*| 
|--(9)-------------|------------------*| 
|------------------|------------------*| 
|------------------|------------------*| 
|------------------|------------------*| 


 
  

cifra enviadasem correções
enviado porenviada por:adalgomes
top 5 | tom petty
top rock'n roll
Outras músicas do artista letras do(a) Tom Petty
Top cifras »Top artistas »
Petaxxon Comunicação Online
Cifras.com.br - Melhor e mais completo site de cifras e tablaturas do Brasil
Mais de 1 milhão de acordes de músicas cadastradas desde 2003
As informações contidas no nosso site são colaborações de seus usuários e podem conter erros, sendo assim, não nos responsabilizamos sobre nenhuma destas.
close
menos
mais
close
Cor dos acordes:

Cor da letra:

 

save
close
close
 
redimensionar