Cifras e Tablaturas
Tommy Tee

Tommy Tee

Askepott

Cifras Cancelar Versão de Impressão Print

Tommy Tee - Askepott

Tom:

  • 0:00 / 0:00
  			------------------------------------------------------------------------------- 
                             Askepott - Tommy Tee 
------------------------------------------------------------------------------- 
Tabbed by:Vetle.c.n 
E-mail: 

Tuning:e standard 

e|---------3--0--------7-----2-------2---2-------------------------------0---| 
B|---------------------8-----3-----3---3---------------1-----------3-----1---| 
G|--------------------------------------------------------2--------4---------| 
D|----2----------------------------------------------------------------------| 
A|------------------------------------------------0--------------------------| 
E|---------------------------------------------------------------------------| 

e|---3-----------| 
B|------5-----5--| 
G|---------4-----| 
D|---------------|     
A|---------------| 
E|---------------| 

e|---------3--0--------7-----2-------2---2-------------------------------0---| 
B|---------------------8-----3-----3---3---------------1-----------3-----1---| 
G|--------------------------------------------------------2--------4---------| 
D|----2----------------------------------------------------------------------| 
A|------------------------------------------------0--------------------------| 
E|---------------------------------------------------------------------------| 

e|---3-----------| 
B|------5-----5--| 
G|---------4-----| 
D|---------------|     
A|---------------| 
E|---------------| 

e|---------3--0--------7-----2-------2---2-------------------------------0---| 
B|---------------------8-----3-----3---3---------------1-----------3-----1---| 
G|--------------------------------------------------------2--------4---------| 
D|----2----------------------------------------------------------------------| 
A|------------------------------------------------0--------------------------| 
E|---------------------------------------------------------------------------| 

e|---3-----------| 
B|------5-----5--| 
G|---------4-----| 
D|---------------|     
A|---------------| 
E|---------------| 

e|---------3--0--------7-----2-------2---2-------------------------------0---| 
B|---------------------8-----3-----3---3---------------1-----------3-----1---| 
G|--------------------------------------------------------2--------4---------| 
D|----2----------------------------------------------------------------------| 
A|------------------------------------------------0--------------------------| 
E|---------------------------------------------------------------------------| 

e|---3-----------| 
B|------5-----5--| 
G|---------4-----| 
D|---------------|     
A|---------------| 
E|---------------| 

e|---------3--0--------7-----2-------2---2-------------------------------0---| 
B|---------------------8-----3-----3---3---------------1-----------3-----1---| 
G|--------------------------------------------------------2--------4---------| 
D|----2----------------------------------------------------------------------| 
A|------------------------------------------------0--------------------------| 
E|---------------------------------------------------------------------------| 

e|---3-----------| 
B|------5-----5--| 
G|---------4-----| 
D|---------------|     
A|---------------| 
E|---------------| 

e|---------3--0--------7-----2-------2---2-------------------------------0---| 
B|---------------------8-----3-----3---3---------------1-----------3-----1---| 
G|--------------------------------------------------------2--------4---------| 
D|----2----------------------------------------------------------------------| 
A|------------------------------------------------0--------------------------| 
E|---------------------------------------------------------------------------| 

e|---3-----------| 
B|------5-----5--| 
G|---------4-----| 
D|---------------|     
A|---------------| 
E|---------------| 

e|---------3--0--------7-----2-------2---2-------------------------------0---| 
B|---------------------8-----3-----3---3---------------1-----------3-----1---| 
G|--------------------------------------------------------2--------4---------| 
D|----2----------------------------------------------------------------------| 
A|------------------------------------------------0--------------------------| 
E|---------------------------------------------------------------------------| 

e|---3-----------| 
B|------5-----5--| 
G|---------4-----| 
D|---------------|     
A|---------------| 
E|---------------| 

e|---------3--0--------7-----2-------2---2-------------------------------0---| 
B|---------------------8-----3-----3---3---------------1-----------3-----1---| 
G|--------------------------------------------------------2--------4---------| 
D|----2----------------------------------------------------------------------| 
A|------------------------------------------------0--------------------------| 
E|---------------------------------------------------------------------------| 

e|---3-----------| 
B|------5-----5--| 
G|---------4-----| 
D|---------------|     
A|---------------| 
E|---------------| 

e|---------3--0--------7-----2-------2---2-------------------------------0---| 
B|---------------------8-----3-----3---3---------------1-----------3-----1---| 
G|--------------------------------------------------------2--------4---------| 
D|----2----------------------------------------------------------------------| 
A|------------------------------------------------0--------------------------| 
E|---------------------------------------------------------------------------| 

e|---3-----------| 
B|------5-----5--| 
G|---------4-----| 
D|---------------|     
A|---------------| 
E|---------------| 

e|---------3--0--------7-----2-------2---2-------------------------------0---| 
B|---------------------8-----3-----3---3---------------1-----------3-----1---| 
G|--------------------------------------------------------2--------4---------| 
D|----2----------------------------------------------------------------------| 
A|------------------------------------------------0--------------------------| 
E|---------------------------------------------------------------------------| 

e|---3-----------| 
B|------5-----5--| 
G|---------4-----| 
D|---------------|     
A|---------------| 
E|---------------| 

e|---------3--0--------7-----2-------2---2-------------------------------0---| 
B|---------------------8-----3-----3---3---------------1-----------3-----1---| 
G|--------------------------------------------------------2--------4---------| 
D|----2----------------------------------------------------------------------| 
A|------------------------------------------------0--------------------------| 
E|---------------------------------------------------------------------------| 

e|---3-----------| 
B|------5-----5--| 
G|---------4-----| 
D|---------------|     
A|---------------| 
E|---------------| 

e|---------3--0--------7-----2-------2---2-------------------------------0---| 
B|---------------------8-----3-----3---3---------------1-----------3-----1---| 
G|--------------------------------------------------------2--------4---------| 
D|----2----------------------------------------------------------------------| 
A|------------------------------------------------0--------------------------| 
E|---------------------------------------------------------------------------| 

e|---3-----------| 
B|------5-----5--| 
G|---------4-----| 
D|---------------|     
A|---------------| 
E|---------------| 

e|---------3--0--------7-----2-------2---2-------------------------------0---| 
B|---------------------8-----3-----3---3---------------1-----------3-----1---| 
G|--------------------------------------------------------2--------4---------| 
D|----2----------------------------------------------------------------------| 
A|------------------------------------------------0--------------------------| 
E|---------------------------------------------------------------------------| 

e|---3-----------| 
B|------5-----5--| 
G|---------4-----| 
D|---------------|     
A|---------------| 
E|---------------| 

e|---------3--0--------7-----2-------2---2-------------------------------0---| 
B|---------------------8-----3-----3---3---------------1-----------3-----1---| 
G|--------------------------------------------------------2--------4---------| 
D|----2----------------------------------------------------------------------| 
A|------------------------------------------------0--------------------------| 
E|---------------------------------------------------------------------------| 

e|---3-----------| 
B|------5-----5--| 
G|---------4-----| 
D|---------------|     
A|---------------| 
E|---------------| 

e|---------3--0--------7-----2-------2---2-------------------------------0---| 
B|---------------------8-----3-----3---3---------------1-----------3-----1---| 
G|--------------------------------------------------------2--------4---------| 
D|----2----------------------------------------------------------------------| 
A|------------------------------------------------0--------------------------| 
E|---------------------------------------------------------------------------| 

e|---3-----------| 
B|------5-----5--| 
G|---------4-----| 
D|---------------|     
A|---------------| 
E|---------------| 

e|---------3--0--------7-----2-------2---2-------------------------------0---| 
B|---------------------8-----3-----3---3---------------1-----------3-----1---| 
G|--------------------------------------------------------2--------4---------| 
D|----2----------------------------------------------------------------------| 
A|------------------------------------------------0--------------------------| 
E|---------------------------------------------------------------------------| 

e|---3-----------| 
B|------5-----5--| 
G|---------4-----| 
D|---------------|     
A|---------------| 
E|---------------| 

e|---------3--0--------7-----2-------2---2-------------------------------0---| 
B|---------------------8-----3-----3---3---------------1-----------3-----1---| 
G|--------------------------------------------------------2--------4---------| 
D|----2----------------------------------------------------------------------| 
A|------------------------------------------------0--------------------------| 
E|---------------------------------------------------------------------------| 

e|---3-----------| 
B|------5-----5--| 
G|---------4-----| 
D|---------------|     
A|---------------| 
E|---------------| 

e|---------3--0--------7-----2-------2---2-------------------------------0---| 
B|---------------------8-----3-----3---3---------------1-----------3-----1---| 
G|--------------------------------------------------------2--------4---------| 
D|----2----------------------------------------------------------------------| 
A|------------------------------------------------0--------------------------| 
E|---------------------------------------------------------------------------| 

e|---3-----------| 
B|------5-----5--| 
G|---------4-----| 
D|---------------|     
A|---------------| 
E|---------------| 

e|---------3--0--------7-----2-------2---2-------------------------------0---| 
B|---------------------8-----3-----3---3---------------1-----------3-----1---| 
G|--------------------------------------------------------2--------4---------| 
D|----2----------------------------------------------------------------------| 
A|------------------------------------------------0--------------------------| 
E|---------------------------------------------------------------------------| 

e|---3-----------| 
B|------5-----5--| 
G|---------4-----| 
D|---------------|     
A|---------------| 
E|---------------| 

e|---------3--0--------7-----2-------2---2-------------------------------0---| 
B|---------------------8-----3-----3---3---------------1-----------3-----1---| 
G|--------------------------------------------------------2--------4---------| 
D|----2----------------------------------------------------------------------| 
A|------------------------------------------------0--------------------------| 
E|---------------------------------------------------------------------------| 

e|---3-----------| 
B|------5-----5--| 
G|---------4-----| 
D|---------------|     
A|---------------| 
E|---------------| 
    	

enviado porenviado por: alyslima
cifra enviadaCorrigida por: sem correções
logo top cifrasComente
ico música do artistaMúsicas deste artista
ico curtiuCurtiu?
ico destaqueDestaque
Petaxxon Comunicação Online

Cifras.com.br - Melhor e mais completo site de cifras e tablaturas do Brasil Mais de 1 milhão de acordes de músicas cadastradas desde 2003
As informações contidas no nosso site são colaborações de seus usuários e podem conter erros, sendo assim, não nos responsabilizamos sobre nenhuma destas.

close
menos
mais
close
Cor dos acordes:

Cor da letra:

close
Alinhar acordes a direita Alinhar acordes a esquerda Alinhar acordes em baixo Alinhar acordes no topo
close
  Mostrar todos os acordes Esconder acordes muito fáceis Esconder acordes fáceis Esconder acordes intermediários
redimensionar
glossário