Cifras e Tablaturas
Tonight Alive

Tonight Alive

Disappear

Cifras Cancelar Versão de Impressão
cifras

Tonight Alive - Disappear

fixar na tela  
Exibindo: vídeo-aula ver clipes redimensionar
  
Intro 

Guitar 1 
e|----------------------| 
B|----------------------| 
G|---------4-----2------| 
D|---2-----4--x8-2--x16-| 
A|---2--x8-2-----0------| 
D|---2------------------| 

Guitar 2 
e|--------------------------------------------------2x-| 
B|-----------------------------------------------------| 
G|-2-4p2--4/7-4~---------------------------------------| 
D|-----------------4~--5~--4~--2~--------2-2-2-2-2-2-2-| 
A|-----------------------------------------------------| 
D|-----------------------------------------------------| 

Guitar 3 (overdub) 
e|--------------------------------------------------2x-| 
B|-8-8-8-8-8-8-8-7-7-7-8-8-8-7-7-----------------------| 
G|-------------------------------6--x8-6/7-7-7/9-9-9-9-| 
D|-----------------------------------------------------| 
A|-----------------------------------------------------| 
D|-----------------------------------------------------| 

Verse 

Guitar 1 
e|--------------------------------------------------------------2x-| 
B|-----8-----8---8-----7-----7---7-----3-----3---3-----------------| 
G|-----------------------------------------------------6-----6---6-| 
D|-----------------0-0---0-0---0-----------------------------------| 
A|-7-7---7-7---7-------------------2-2---2-2---2---0-0---0-0---0---| 
D|-----------------------------------------------------------------| 
   * *   * *   *   * *   * *   *   * *   * *   *   * *   * *   *    
e|--------------------------------------------------------------2x-| 
B|-----8-----8---8---------------------2-----2---2-----------------| 
G|---------------------7-----7---7---------------------6-----6---6-| 
D|-----------------0-0---0-0---0-----------------------------------| 
A|-7-7---7-7---7-------------------2-2---2-2---2---0-0---0-0---0---| 
D|-----------------------------------------------------------------| 
   * *   * *   *   * *   * *   *   * *   * *   *   * *   * *   *    
Guitar 2 (comes in at 0:30) 
e|---------------------------------------------------------| 
B|----------------7~--5~--2~--0~----------------7~--5~-----| 
G|-----4~----7~-----------------------4~-------------------| 
D|-2-2----------------------------2-2----------------------| 
A|---------------------------------------------------------| 
D|---------------------------------------------------------| 

Chorus 

Guitar 1 
e|----------------------| 
B|----------------------| 
G|---------4-----2------| 
D|---2-----4--x8-2--x16-| 
A|---2--x8-2-----0------| 
D|---2------------------| 

Guitar 2 
e|--------------------------------------------------2x-| 
B|-----------------------------------------------------| 
G|-2-4p2--4/7-4~---------------------------------------| 
D|-----------------4~--5~--4~--2~--------2-2-2-2-2-2-2-| 
A|-----------------------------------------------------| 
D|-----------------------------------------------------| 

Guitar 3 (overdub) 
e|--------------------------------------------------2x-| 
B|-8-8-8-8-8-8-8-7-7-7-8-8-8-7-7-----------------------| 
G|-------------------------------6--x8-6/7-7-7/9-9-9-9-| 
D|-----------------------------------------------------| 
A|-----------------------------------------------------| 
D|-----------------------------------------------------| 

verse 2 

Guitar 1 
e|--------------------------------------------------------------2x-| 
B|-----8-----8---8-----7-----7---7-----3-----3---3-----------------| 
G|-----------------------------------------------------6-----6---6-| 
D|-----------------0-0---0-0---0-----------------------------------| 
A|-7-7---7-7---7-------------------2-2---2-2---2---0-0---0-0---0---| 
D|-----------------------------------------------------------------| 
   * *   * *   *   * *   * *   *   * *   * *   *   * *   * *   *    
e|--------------------------------------------------------------2x-| 
B|-----8-----8---8---------------------2-----2---2-----------------| 
G|---------------------7-----7---7---------------------6-----6---6-| 
D|-----------------0-0---0-0---0-----------------------------------| 
A|-7-7---7-7---7-------------------2-2---2-2---2---0-0---0-0---0---| 
D|-----------------------------------------------------------------| 
   * *   * *   *   * *   * *   *   * *   * *   *   * *   * *   *     
Guitar 2 (comes in at 0:30) 
e|---------------------------------------------------------| 
B|----------------7~--5~--2~--0~----------------7~--5~-----| 
G|-----4~----7~------------------------4~------------------| 
D|-2-2-----------------------------2-2---------------------| 
A|---------------------------------------------------------| 
D|---------------------------------------------------------| 

Chorus 2 

Guitar 1 
e|----------------------| 
B|----------------------| 
G|---------4-----2------| 
D|---2-----4--x8-2--x16-| 
A|---2--x8-2-----0------| 
D|---2------------------| 

Guitar 2 
e|--------------------------------------------------2x-| 
B|-----------------------------------------------------| 
G|-2-4p2--4/7-4~---------------------------------------| 
D|-----------------4~--5~--4~--2~--------2-2-2-2-2-2-2-| 
A|-----------------------------------------------------| 
D|-----------------------------------------------------| 

Guitar 3 (overdub) 
e|--------------------------------------------------2x-| 
B|-8-8-8-8-8-8-8-7-7-7-8-8-8-7-7-----------------------| 
G|-------------------------------6--x8-6/7-7-7/9-9-9-9-| 
D|-----------------------------------------------------| 
A|-----------------------------------------------------| 
D|-----------------------------------------------------| 

Chorus 2 Pt. 2 

Guitar 1 
e|---------------------------------------| 
B|---------------------------------------| 
G|--------------------------4-----2------| 
D|-5-----9-----7------2-----4--x8-2--x16-| 
A|-5--x8-9--x8-7--x16-2--x8-2-----0------| 
D|-5-----9-----7------2------------------| 

Guitar 2 
e|--------------------------------------------------------------------------------------| 
B|--------------------------------------------------------------------------------------| 
G|-4-----7-----6------7-7-7-7-6-6-6-6-4p2--4/7-4~-----------------------6/7-7-7/9-9-9-9-| 
D|----x8----x8----x16-------------------------------4-4-4-5-5-4-4-4-2~------------------| 
A|-2-----5-----4------------------------------------------------------------------------| 
D|--------------------------------------------------------------------------------------| 

Bridge 

Guitar 1 (light distortion, fingerpicked) 
e|---------------------|------------------5x-|------------------------| 
B|---------------------|---------------------|------------------------| 
G|------4~---7~---6~---|-4~---4~---7~---6~---|-4~---4~---7~-----------| 
D|---------------------|---------------------|----------------(pause)-| 
A|---------------------|---------------------|------------------------| 
D|-2~---5~---9~---7~---|-2~---5~---9~---7~---|-2~---5~---9~-----------| 

Guitar 2 (comes in at 2:18) 
e|------------------------------------------4x-|-----------------------------------------| 
B|---------------------------------------------|-----------------------------------------| 
G|---------------------------------------------|-----------------------------------------| 
D|-2~-2~-2~---5~-5~-5~---9~-9~-9~---7~-7~-7~---|-2~-2~-2~---5~-5~-5~---9~-9~-9~----------| 
A|-2~-2~-2~---5~-5~-5~---9~-9~-9~---7~-7~-7~---|-2~-2~-2~---5~-5~-5~---9~-9~-9~--(pause)-| 
D|-2~-2~-2~---5~-5~-5~---9~-9~-9~---7~-7~-7~---|-2~-2~-2~---5~-5~-5~---9~-9~-9~----------| 

Final Chorus 

Guitar 1 
e|-------------------4x-| 
B|----------------------| 
G|---------4-----2------| 
D|---2-----4--x8-2--x16-| 
A|---2--x8-2-----0------| 
D|---2------------------| 

Guitar 2 
e|--------------------------------------------------3x-|----------------------------------| 
B|-----------------------------------------------------|----------------------------------| 
G|-2-4p2--4/7-4~---------------------------------------|-2-4p2--4/7-4~--------------------| 
D|-----------------4~--5~--4~--2~--------2-2-2-2-2-2-2-|-----------------4~--5~--4~--2~---| 
A|-----------------------------------------------------|----------------------------------| 
D|-----------------------------------------------------|----------------------------------| 

Guitar 3 (overdub) 
e|--------------------------------------------------3x-|-------------------------------------| 
B|-8-8-8-8-8-8-8-7-7-7-8-8-8-7-7-----------------------|-8-8-8-8-8-8-8-7-7-7-8-8-8-7-7-------| 
G|-------------------------------6--x8-6/7-7-7/9-9-9-9-|-------------------------------6--x8-| 
D|-----------------------------------------------------|-------------------------------------| 
A|-----------------------------------------------------|-------------------------------------| 
D|-----------------------------------------------------|-------------------------------------| 
__________________________________________________________________________________________________________ 
p - pull off 
~ - let note ring 
* - palm mute 
/ or \ - slide 
  

top 5 | tonight alive
top rock alternativo
Outras músicas do artista letras do(a) Tonight Alive
Top cifras »Top artistas »
Petaxxon Comunicação Online
Cifras.com.br - Melhor e mais completo site de cifras e tablaturas do Brasil
Mais de 1 milhão de acordes de músicas cadastradas desde 2003
As informações contidas no nosso site são colaborações de seus usuários e podem conter erros, sendo assim, não nos responsabilizamos sobre nenhuma destas.
close
menos
mais
close
Cor dos acordes:

Cor da letra:

 

save
close
close
 
redimensionar