Cifras e Tablaturas
Tonight Alive

Tonight Alive

In My Dreams

Cifras Cancelar Versão de Impressão
cifras

Tonight Alive - In My Dreams

fixar na tela  
Exibindo: vídeo-aula ver clipes redimensionar

Tom:

  
Intro 
e|--------------------------------| 
B|--------------------------------| 
G|--------------------------------| 
D|4--4--4--4--4--4--4--4--4--4--4-| (x2) 
A|--------------------------------| 
E|--------------------------------| 

e|--------------------------------|--------------------------------| 
B|--------------------------------|--------------------------------| 
G|--------------------------------|--------------------------------| 
D|5--5--5--5--5---2--2--2--2--2---|4--4--4--4--4--4--4--4--4--4--4-| 
A|--------------------------------|--------------------------------| 
E|--------------------------------|--------------------------------| 

Verse 
w/ delay pedal 
e|----------------|----------------| 
B|------------7---|----------------| 
G|6---7---4-------|6---7---4---4---| (x4) 
D|----------------|----------------| 
A|----------------|----------------| 
E|----------------|----------------| 

no delay                    restart delay 
e|7--7--7---5---------------|------------------------------| 
B|--------------5-----------|------------7-----------------| 
G|--------------------------|6---7---4-------6---7---4---4-| (x2) 
D|--------------------------|------------------------------| 
A|--------------------------|------------------------------| 
E|--------------------------|------------------------------| 

Chorus 
e|7---------5-----|----------------|----------------|-----------5---5---| 
B|---7----------7-|----------------|--------------5-|-5-5--5-5----5---3-| 
G|------7---------|------7-6--7----|------7-6--7----|-------------------| 
D|----------------|--------------7-|----------------|-------------------|(x2) 
A|----------------|----------------|----------------|-------------------| 
E|----------------|----------------|----------------|-------------------| 

e|--------------------------------|--------------------------------| 
B|------------7-----------7-------|------------7-----------7-------| 
G|4-4-4-4-4-4-----4-4-4-4---4-4-4-|4-4-4-4-4-4-----4-4-4-4---4-4-4-| 
D|--------------------------------|--------------------------------| 
A|--------------------------------|--------------------------------| 
E|--------------------------------|--------------------------------| 

e|--------------------------------|--------------------------------| 
B|------------5-----------5-------|3-3-3-3-3-3-2-2-2-2-2-2---------| 
G|2-2-2-2-2-2-----2-2-2-2---2-2-2-|------------------------2-2-2-2-| 
D|--------------------------------|--------------------------------| 
A|--------------------------------|--------------------------------| 
E|--------------------------------|--------------------------------| 

e|--------------------------------|----------------------|------------------| 
B|------------7-----------7-------|----------------------|--------------5---| 
G|4-4-4-4-4-4-----4-4-4-4---4-4-4-|------------7-6--7----|------7-6--7------| 
D|--------------------------------|7-7-7-7-7-7---------7-|------------------| 
A|--------------------------------|----------------------|------------------| 
E|--------------------------------|----------------------|------------------| 

e|--------------------------------| 
B|--------------------------------| 
G|--------------------------------| 
D|4--4--4--4--4--4--4--4--4--4--4-| (x2) 
A|--------------------------------| 
E|--------------------------------| 

Verse 
w/ delay pedal 
e|----------------|----------------| 
B|------------7---|----------------| 
G|6---7---4-------|6---7---4---4---| (x4) 
D|----------------|----------------| 
A|----------------|----------------| 
E|----------------|----------------| 

no delay                    restart delay 
e|7--7--7---5---------------|------------------------------| 
B|--------------5-----------|------------7-----------------| 
G|--------------------------|6---7---4-------6---7---4---4-| (x2) 
D|--------------------------|------------------------------| 
A|--------------------------|------------------------------| 
E|--------------------------|------------------------------| 

Chorus 
e|7---------5-----|----------------|----------------|-----------5---5---| 
B|---7----------7-|----------------|--------------5-|-5-5--5-5----5---3-| 
G|------7---------|------7-6--7----|------7-6--7----|-------------------| 
D|----------------|--------------7-|----------------|-------------------|(x2) 
A|----------------|----------------|----------------|-------------------| 
E|----------------|----------------|----------------|-------------------| 

e|--------------------------------|--------------------------------| 
B|------------7-----------7-------|------------7-----------7-------| 
G|4-4-4-4-4-4-----4-4-4-4---4-4-4-|4-4-4-4-4-4-----4-4-4-4---4-4-4-| 
D|--------------------------------|--------------------------------| 
A|--------------------------------|--------------------------------| 
E|--------------------------------|--------------------------------| 

e|--------------------------------|--------------------------------| 
B|------------5-----------5-------|3-3-3-3-3-3-2-2-2-2-2-2---------| 
G|2-2-2-2-2-2-----2-2-2-2---2-2-2-|------------------------2-2-2-2-| 
D|--------------------------------|--------------------------------| 
A|--------------------------------|--------------------------------| 
E|--------------------------------|--------------------------------| 

e|--------------------------------|----------------------|----------------|----------5---5----| 
B|------------7-----------7-------|----------------------|--------------5-|-5-5--5-5----5---3-| 
G|4-4-4-4-4-4-----4-4-4-4---4-4-4-|------------7-6--7----|------7-6--7----|-------------------| 
D|--------------------------------|7-7-7-7-7-7---------7-|----------------|-------------------| 
A|--------------------------------|----------------------|----------------|-------------------| 
E|--------------------------------|----------------------|----------------|-------------------| 

Transition 
e|--------------------------------|--------------------------------| 
B|------------7-----------7-------|------------7-----------7-------| 
G|4-4-4-4-4-4-----4-4-4-4---4-4-4-|4-4-4-4-4-4-----4-4-4-4---4-4-4-| 
D|--------------------------------|--------------------------------| 
A|--------------------------------|--------------------------------| 
E|--------------------------------|--------------------------------| 

e|--------------------------------|--------------------------------| 
B|------------5-----------5-------|3-3-3-3-3-3-2-2-2-2-2-2---------| 
G|2-2-2-2-2-2-----2-2-2-2---2-2-2-|------------------------2-2-2-2-| 
D|--------------------------------|--------------------------------| 
A|--------------------------------|--------------------------------| 
E|--------------------------------|--------------------------------| 

w/ delay 
e|----------------|----------------| 
B|------------7---|------------7---| 
G|6---7---4-------|6---7---4-------| (x2) 
D|----------------|----------------| 
A|----------------|----------------| 
E|----------------|----------------| 

Chorus 
e|7---------5-----|----------------|----------------|-----------5---5---| 
B|---7----------7-|----------------|--------------5-|-5-5--5-5----5---3-| 
G|------7---------|------7-6--7----|------7-6--7----|-------------------| 
D|----------------|--------------7-|----------------|-------------------|(x2) 
A|----------------|----------------|----------------|-------------------| 
E|----------------|----------------|----------------|-------------------| 

e|--------------------------------|--------------------------------| 
B|------------7-----------7-------|------------7-----------7-------| 
G|4-4-4-4-4-4-----4-4-4-4---4-4-4-|4-4-4-4-4-4-----4-4-4-4---4-4-4-| 
D|--------------------------------|--------------------------------| 
A|--------------------------------|--------------------------------| 
E|--------------------------------|--------------------------------| 

e|--------------------------------|--------------------------------| 
B|------------5-----------5-------|3-3-3-3-3-3-2-2-2-2-2-2---------| 
G|2-2-2-2-2-2-----2-2-2-2---2-2-2-|------------------------2-2-2-2-| 
D|--------------------------------|--------------------------------| 
A|--------------------------------|--------------------------------| 
E|--------------------------------|--------------------------------| 

e|--------------------------------|----------------------|----------------|----------5---5----| 
B|------------7-----------7-------|----------------------|--------------5-|-5-5--5-5----5---3-| 
G|4-4-4-4-4-4-----4-4-4-4---4-4-4-|------------7-6--7----|------7-6--7----|-------------------| 
D|--------------------------------|7-7-7-7-7-7---------7-|----------------|-------------------| 
A|--------------------------------|----------------------|----------------|-------------------| 
E|--------------------------------|----------------------|----------------|-------------------| 

Outro  
e|--------------------------------|--------------------------------| 
B|------------7-----------7-------|------------7-----------7-------| 
G|4-4-4-4-4-4-----4-4-4-4---4-4-4-|4-4-4-4-4-4-----4-4-4-4---4-4-4-| 
D|--------------------------------|--------------------------------| 
A|--------------------------------|--------------------------------| 
E|--------------------------------|--------------------------------| 

e|--------------------------------|--------------------------------| 
B|------------5-----------5-------|3-3-3-3-3-3-2-2-2-2-2-2---------| 
G|2-2-2-2-2-2-----2-2-2-2---2-2-2-|------------------------2-2-2-2-| 
D|--------------------------------|--------------------------------| 
A|--------------------------------|--------------------------------| 
E|--------------------------------|--------------------------------| 

repeat above 2 lines x2 
w/ delay 
e|----------------|----------------| 
B|------------7---|----------------| 
G|6---7---4-------|6---7---4---4---| (x4) 
D|----------------|----------------| 
A|----------------|----------------| 
E|----------------|----------------| 
  

top 5 | tonight alive
top rock alternativo
Outras músicas do artista letras do(a) Tonight Alive
Top cifras »Top artistas »
Petaxxon Comunicação Online
Cifras.com.br - Melhor e mais completo site de cifras e tablaturas do Brasil
Mais de 1 milhão de acordes de músicas cadastradas desde 2003
As informações contidas no nosso site são colaborações de seus usuários e podem conter erros, sendo assim, não nos responsabilizamos sobre nenhuma destas.
close
menos
mais
close
Cor dos acordes:

Cor da letra:

 

save
close
close
 
redimensionar