Cifras e Tablaturas
Tonight Alive

Tonight Alive

Temple

Cifras Cancelar Versão de Impressão
cifras

Tonight Alive - Temple

fixar na tela  
Exibindo: vídeo-aula ver clipes redimensionar

Tom:

D#

ver outros tons
  Intro  

D#|---------------------------------------------------------------------------| 
A#|---------------------------------------------------------------------------| 
F#|-------------------------------------------4---4---------------------------| 
C#|---4-4---7-7---2---------4-4---7-7---2-------------------------------------| 
G#|---4-4---7-7---2---------4-4---7-7---2-----2---2---------------------------| 
C#|---4-4---7-7---2---------4-4---7-7---2---2---2-----------------------------| 

verse 1 

D#|---------------------------------------------------------------------------| 
A#|---------------------------------------------------------------------------| 
F#|-------------------------------------------4---4---------------------------| 
C#|---------------------------------------------------------------------------| 
G#|-------------------------------------------2---2---------------------------| 
C#|---4-4---7----~2---------4-4---7-----2---2---2-----------------------------| 

D#|---------------------------------------------------------------------------| 
A#|---------------------------------------------------------------------------| 
F#|---------------------------------------------------------------------------| 
C#|---------------------------------------------------------------------------| 
G#|---------------------------------------------------------------------------| 
C#|---4-4---7----~2---------0-----2-------------------------------------------| 

D#|---------------------------------------------------------------------------| 
A#|---------------------------------------------------------------------------| 
F#|-------------------------------------------4---4---------------------------| 
C#|---------------------------------------------------------------------------| 
G#|-------------------------------------------2---2---------------------------| 
C#|---4-4---7-7--~2---------4-4---7-7---2---2---------------------------------| 

D#|---------------------------------------------------------------------------| 
A#|---------------------------------------------------------------------------| 
F#|---------------------------------------------------------------------------| 
C#|---------------------------------------------------------------------------| 
G#|---------------------------------------------------------------------------| 
C#|---4-4---7-7--~2---------0-----2-------------------------------------------| 


Chorus 1 

   Guitar 1  
D#|---------------------------------------------------------------------------| 
A#|---------------------------------------------------------------------------| 
F#|---------------------------------------------------------------------------| 
C#|--000000----------------444444-----------------222222----------------------| 
G#|--000000----------------444444-----------------222222----------------------| 
C#|--000000----------------444444-----------------222222----------------------| 

   Guitar 2  
D#|---------------------------------------------------------------------------| 
A#|--777777----------------101010101010-----------121212121212----------------| 
F#|---------------------------------------------------------------------------| 
C#|--444444----------------7-7-7-7-7-7------------9-9-9-9-9-9-----------------| 
G#|---------------------------------------------------------------------------| 
C#|---------------------------------------------------------------------------| 
    "I do not think you    heard me when I say    My body is a temple...." 

   Guitar 1 
D#|---------------------------------------------------------------------------| 
A#|---------------------------------------------------------------------------| 
F#|---------------------------------------------------------------------------| 
C#|--000000----------------444444----------------------222222-----------------| 
G#|--000000----------------444444----------------------222222-----------------| 
C#|--000000----------------444444----------------------222222-----------------| 

   Guitar 2  
D#|---------------------------------------------------------------------------| 
A#|--777777----------------101010101010----------------121212121212-----------| 
F#|---------------------------------------------------------------------------| 
C#|--444444----------------7-7-7-7-7-7-----------------9-9-9-9-9-9------------| 
G#|---------------------------------------------------------------------------| 
C#|---------------------------------------------------------------------------| 
    "Help me please I      could not be more desperate   My body is a temple..." 



   Guitar 1  
D#|---------------------------------------------------------------------------| 
A#|---------------------------------------------------------------------------| 
F#|---------------------------------------------------------------------------| 
C#|--000000----------------444444-----------------222222----------------------| 
G#|--000000----------------444444-----------------222222----------------------| 
C#|--000000----------------444444-----------------222222----------------------| 
     

   Guitar 2  
D#|---------------------------------------------------------------------------| 
A#|--777777----------------101010101010-----------121212121212----------------| 
F#|---------------------------------------------------------------------------| 
C#|--444444----------------7-7-7-7-7-7------------9-9-9-9-9-9-----------------| 
G#|---------------------------------------------------------------------------| 
C#|---------------------------------------------------------------------------| 

   Guitar 3  
D#|--17--------------------17-------------------------------------------------| 
A#|-----15---------------------14---------------------------------------------| 
F#|-----------------------------------------------14--16----------------------| 
C#|---------------------------------------------------------------------------| 
G#|---------------------------------------------------------------------------| 
C#|---------------------------------------------------------------------------| 

   Guitar 4  
D#|---------------------------------------------------------------------------| 
A#|---------------------------------------------------------------------------| 
F#|--5---------------------6----------------------2---4-----------------------| 
C#|---------------------------------------------------------------------------| 
G#|--7---------------------4----------------------0---2-----------------------| 
C#|---------------------------------------------------------------------------| 
    "Hell                  when will this end?     Let it be the last time..." 


   Guitar 1  
D#|---------------------------------------------------------------------------| 
A#|---------------------------------------------------------------------------| 
F#|---------------------------------------------------------------------------| 
C#|--000000----------------444444-----------------222222----------------------| 
G#|--000000----------------444444-----------------222222----------------------| 
C#|--000000----------------444444-----------------222222----------------------| 

   Guitar 2  
D#|---------------------------------------------------------------------------| 
A#|--777777----------------101010101010------------121212121212---------------| 
F#|---------------------------------------------------------------------------| 
C#|--444444----------------7-7-7-7-7-7-------------9-9-9-9-9-9----------------| 
G#|---------------------------------------------------------------------------| 
C#|---------------------------------------------------------------------------| 
     

   Guitar 3  
D#|--17--------------------17-------------------------------------------------| 
A#|-----15---------------------14---------------------------------------------| 
F#|-----------------------------------------------14--16----------------------| 
C#|---------------------------------------------------------------------------| 
G#|---------------------------------------------------------------------------| 
C#|---------------------------------------------------------------------------| 

   Guitar 4  
D#|---------------------------------------------------------------------------| 
A#|---------------------------------------------------------------------------| 
F#|--5---------------------6----------------------2---4-----------------------| 
C#|---------------------------------------------------------------------------| 
G#|--7---------------------4----------------------0---2-----------------------| 
C#|---------------------------------------------------------------------------| 
    "I've never been       so close to the edge    My body is a temple..." 


verse 2  

   *pickup middle position* 
D#|---------------------------------------------------------------------------| 
A#|---------------------------------------------------------------------------| 
F#|---------------------------------------------------------------------------| 
C#|---------------------------------------------------------------------------| 
G#|---4-4---7----~2---------4-4---7----2--------------------------------------| 
C#|---4-4---7----~2---------4-4---7----2--------------------------------------| 

D#|---------------------------------------------------------------------------| 
A#|---------------------------------------------------------------------------| 
F#|---------------------------------------------------------------------------| 
C#|---------------------------------------------------------------------------| 
G#|---4-4---7----~2---------0-----2-------------------------------------------| 
C#|---4-4---7----~2---------0-----2-------------------------------------------| 

   *pickup bridge position* 
D#|---------------------------------------------------------------------------| 
A#|---------------------------------------------------------------------------| 
F#|-------------------------------------------4---4---------------------------| 
C#|---------------------------------------------------------------------------| 
G#|---4-4---7-----2---------4-4---7-----2-----2---2---------------------------| 
C#|---4-4---7-----2---------4-4---7-----2---2---------------------------------| 

D#|---------------------------------------------------------------------------| 
A#|---------------------------------------------------------------------------| 
F#|---------------------------------------------------------------------------| 
C#|---------------------------------------------------------------------------| 
G#|---4-4---7----~2---------0-----2-------------------------------------------| 
C#|---4-4---7----~2---------0-----2-------------------------------------------| 


Chorus 2 

   Guitar 1  
D#|---------------------------------------------------------------------------| 
A#|---------------------------------------------------------------------------| 
F#|---------------------------------------------------------------------------| 
C#|--000000----------------444444-----------------222222----------------------| 
G#|--000000----------------444444-----------------222222----------------------| 
C#|--000000----------------444444-----------------222222----------------------| 

   Guitar 2  
D#|---------------------------------------------------------------------------| 
A#|--777777----------------101010101010-----------121212121212----------------| 
F#|---------------------------------------------------------------------------| 
C#|--444444----------------7-7-7-7-7-7------------9-9-9-9-9-9-----------------| 
G#|---------------------------------------------------------------------------| 
C#|---------------------------------------------------------------------------| 
    "I do not think you    heard me when I said    My body is a temple...." 

   Guitar 1 
D#|---------------------------------------------------------------------------| 
A#|---------------------------------------------------------------------------| 
F#|---------------------------------------------------------------------------| 
C#|--000000----------------444444----------------------222222-----------------| 
G#|--000000----------------444444----------------------222222-----------------| 
C#|--000000----------------444444----------------------222222-----------------| 

   Guitar 2  
D#|---------------------------------------------------------------------------| 
A#|--777777----------------101010101010---------------121212121212------------| 
F#|---------------------------------------------------------------------------| 
C#|--444444----------------7-7-7-7-7-7----------------9-9-9-9-9-9-------------| 
G#|---------------------------------------------------------------------------| 
C#|---------------------------------------------------------------------------| 
    "Help me please I      could not be more desperate   My body is a temple..." 



   Guitar 1  
D#|---------------------------------------------------------------------------| 
A#|---------------------------------------------------------------------------| 
F#|---------------------------------------------------------------------------| 
C#|--000000----------------444444-----------------222222----------------------| 
G#|--000000----------------444444-----------------222222----------------------| 
C#|--000000----------------444444-----------------222222----------------------| 
     

   Guitar 2  
D#|---------------------------------------------------------------------------| 
A#|--777777----------------101010101010-----------121212121212----------------| 
F#|---------------------------------------------------------------------------| 
C#|--444444----------------7-7-7-7-7-7------------9-9-9-9-9-9-----------------| 
G#|---------------------------------------------------------------------------| 
C#|---------------------------------------------------------------------------| 

   Guitar 2  
D#|--17--------------------17-------------------------------------------------| 
A#|-----15---------------------14---------------------------------------------| 
F#|-----------------------------------------------14--16----------------------| 
C#|---------------------------------------------------------------------------| 
G#|---------------------------------------------------------------------------| 
C#|---------------------------------------------------------------------------| 

   Guitar 4  
D#|---------------------------------------------------------------------------| 
A#|---------------------------------------------------------------------------| 
F#|--5---------------------6----------------------2---4-----------------------| 
C#|---------------------------------------------------------------------------| 
G#|--7---------------------4----------------------0---2-----------------------| 
C#|---------------------------------------------------------------------------| 
    "Hell                  when will this end?     Let it be the last time..." 


   Guitar 1  
D#|---------------------------------------------------------------------------| 
A#|---------------------------------------------------------------------------| 
F#|---------------------------------------------------------------------------| 
C#|--000000----------------444444-----------------222222----------------------| 
G#|--000000----------------444444-----------------222222----------------------| 
C#|--000000----------------444444-----------------222222----------------------| 

   Guitar 2  
D#|---------------------------------------------------------------------------| 
A#|--777777----------------101010101010------------121212121212---------------| 
F#|---------------------------------------------------------------------------| 
C#|--444444----------------7-7-7-7-7-7-------------9-9-9-9-9-9----------------| 
G#|---------------------------------------------------------------------------| 
C#|---------------------------------------------------------------------------| 
     

   Guitar 3  
D#|--17--------------------17-------------------------------------------------| 
A#|-----15---------------------14---------------------------------------------| 
F#|-----------------------------------------------14--16----------------------| 
C#|---------------------------------------------------------------------------| 
G#|---------------------------------------------------------------------------| 
C#|---------------------------------------------------------------------------| 

   Guitar 4  
D#|---------------------------------------------------------------------------| 
A#|---------------------------------------------------------------------------| 
F#|--5---------------------6----------------------2---4-----------------------| 
C#|---------------------------------------------------------------------------| 
G#|--7---------------------4----------------------0---2-----------------------| 
C#|---------------------------------------------------------------------------| 
    "I've never been       so close to the edge    My body is a temple..." 

Bridge 

D#|---------------------------------------------------------------------------| 
A#|---------------------------------------------------------------------------| 
F#|-------------------------------------------4---4---------------------------| 
C#|---------------------------------------------------------------------------| 
G#|-------------------------------------------2---2---------------------------| 
C#|---4-4---7----~2---------4-4---7-----2---2---------------------------------| 

D#|---------------------------------------------------------------------------| 
A#|---------------------------------------------------------------------------| 
F#|---------------------------------------------------------------------------| 
C#|---------------------------------------------------------------------------| 
G#|---------------------------------------------------------------------------| 
C#|---4-4---7----~2---------0-----2-------------------------------------------| 

D#|---------------------------------------------------------------------------| 
A#|---------------------------------------------------------------------------| 
F#|-------------------------------------------4---4---------------------------| 
C#|---4-4---7-7---2---------4-4---7-7---2-------------------------------------| 
G#|---4-4---7-7---2---------4-4---7-7---2-----2---2---------------------------| 
C#|---4-4---7-7---2---------4-4---7-7---2---2---2-----------------------------| 

D#|---------------------------------------------------------------------------| 
A#|---------------------------------------------------------------------------| 
F#|-------------------------------------------4---4---------------------------| 
C#|---4-4---7-7---2---------0-----2-------------------------------------------| 
G#|---4-4---7-7---2---------0-----2-----------2---2---------------------------| 
C#|---4-4---7-7---2---------0-----2---------2---2-----------------------------| 

Chorus 3 

   Guitar 1  
D#|---------------------------------------------------------------------------| 
A#|---------------------------------------------------------------------------| 
F#|---------------------------------------------------------------------------| 
C#|-----------------------------------------------222222----------------------| 
G#|-----------------------------------------------222222----------------------| 
C#|-----------------------------------------------222222----------------------| 

   Guitar 2  
D#|---------------------------------------------------------------------------| 
A#|-----------------------------------------------121212121212----------------| 
F#|---------------------------------------------------------------------------| 
C#|-----------------------------------------------9-9-9-9-9-9-----------------| 
G#|---------------------------------------------------------------------------| 
C#|---------------------------------------------------------------------------| 
    "I do not think you    heard me when I said    My body is a temple...." 

   Guitar 1 
D#|---------------------------------------------------------------------------| 
A#|---------------------------------------------------------------------------| 
F#|---------------------------------------------------------------------------| 
C#|--000000----------------444444----------------------222222-----------------| 
G#|--000000----------------444444----------------------222222-----------------| 
C#|--000000----------------444444----------------------222222-----------------| 

   Guitar 2  
D#|---------------------------------------------------------------------------| 
A#|--777777----------------101010101010---------------121212121212------------| 
F#|---------------------------------------------------------------------------| 
C#|--444444----------------7-7-7-7-7-7----------------9-9-9-9-9-9-------------| 
G#|---------------------------------------------------------------------------| 
C#|---------------------------------------------------------------------------| 
    "Help me please I      could not be more desperate   My body is a temple..." 



   Guitar 1  
D#|---------------------------------------------------------------------------| 
A#|---------------------------------------------------------------------------| 
F#|---------------------------------------------------------------------------| 
C#|--000000----------------444444-----------------222222----------------------| 
G#|--000000----------------444444-----------------222222----------------------| 
C#|--000000----------------444444-----------------222222----------------------| 
     

   Guitar 2  
D#|---------------------------------------------------------------------------| 
A#|--777777----------------101010101010-----------121212121212----------------| 
F#|---------------------------------------------------------------------------| 
C#|--444444----------------7-7-7-7-7-7------------9-9-9-9-9-9-----------------| 
G#|---------------------------------------------------------------------------| 
C#|---------------------------------------------------------------------------| 

   Guitar 2  
D#|--17--------------------17-------------------------------------------------| 
A#|-----15---------------------14---------------------------------------------| 
F#|-----------------------------------------------14--16----------------------| 
C#|---------------------------------------------------------------------------| 
G#|---------------------------------------------------------------------------| 
C#|---------------------------------------------------------------------------| 

   Guitar 4  
D#|---------------------------------------------------------------------------| 
A#|---------------------------------------------------------------------------| 
F#|--5---------------------6----------------------2---4-----------------------| 
C#|---------------------------------------------------------------------------| 
G#|--7---------------------4----------------------0---2-----------------------| 
C#|---------------------------------------------------------------------------| 
    "Hell                  when will this end?     Let it be the last time..." 


   Guitar 1  
D#|---------------------------------------------------------------------------| 
A#|---------------------------------------------------------------------------| 
F#|---------------------------------------------------------------------------| 
C#|--000000----------------444444-----------------222222----------------------| 
G#|--000000----------------444444-----------------222222----------------------| 
C#|--000000----------------444444-----------------222222----------------------| 

   Guitar 2  
D#|---------------------------------------------------------------------------| 
A#|--777777----------------101010101010------------121212121212---------------| 
F#|---------------------------------------------------------------------------| 
C#|--444444----------------7-7-7-7-7-7-------------9-9-9-9-9-9----------------| 
G#|---------------------------------------------------------------------------| 
C#|---------------------------------------------------------------------------| 
     

   Guitar 3  
D#|--17--------------------17-------------------------------------------------| 
A#|-----15---------------------14---------------------------------------------| 
F#|-----------------------------------------------14--16----------------------| 
C#|---------------------------------------------------------------------------| 
G#|---------------------------------------------------------------------------| 
C#|---------------------------------------------------------------------------| 

   Guitar 4  
D#|---------------------------------------------------------------------------| 
A#|---------------------------------------------------------------------------| 
F#|--5---------------------6----------------------2---4-----------------------| 
C#|---------------------------------------------------------------------------| 
G#|--7---------------------4----------------------0---2-----------------------| 
C#|---------------------------------------------------------------------------| 
    "I've never been       so close to the edge    My body is a temple..." 

Outro 
D#|---------------------------------------------------------------------------| 
A#|---------------------------------------------------------------------------| 
F#|---------------------------------------------------------------------------| 
C#|---4-4---7-7---2---------4-4---7-7---2-------------------------------------| 
G#|---4-4---7-7---2---------4-4---7-7---2-------------------------------------| 
C#|---4-4---7-7---2---------4-4---7-7---2-------------------------------------| 



************************************ 

| ~  Vibrato 
  

************************************ 
  

top 5 | tonight alive
top rock alternativo
Outras músicas do artista letras do(a) Tonight Alive
Top cifras »Top artistas »
Petaxxon Comunicação Online
Cifras.com.br - Melhor e mais completo site de cifras e tablaturas do Brasil
Mais de 1 milhão de acordes de músicas cadastradas desde 2003
As informações contidas no nosso site são colaborações de seus usuários e podem conter erros, sendo assim, não nos responsabilizamos sobre nenhuma destas.
close
menos
mais
close
Cor dos acordes:

Cor da letra:

 

save
close
close
 
redimensionar