Cifras e Tablaturas
Tonight Alive

Tonight Alive

To Be Free

Cifras Cancelar Versão de Impressão
cifras

Tonight Alive - To Be Free

fixar na tela  
Exibindo: vídeo-aula ver clipes redimensionar
  
Intro ( lead) (tremelo picking optional)  

D|--15------15--17--13------13--12-------------------------------------------| 
A|------15--------------13----------13--15-----------------------------------| 
F|---------------------------------------------------------------------------| 
C|---------------------------------------------------------------------------| 
G|---------------------------------------------------------------------------| 
C|---------------------------------------------------------------------------| 

D|--15------15--17--13------13--12------13--15-------------------------------| 
A|------15--------------13----------13---------------------------------------| 
F|---------------------------------------------------------------------------| 
C|---------------------------------------------------------------------------| 
G|---------------------------------------------------------------------------| 
C|---------------------------------------------------------------------------| 

Intro(rhythm) play 2x 

D|---------------------------------------------------------------------------| 
A|---------------------------------------------------------------------------| 
F|----------------------5----------------------------------------------------| 
C|---5---------3--------5--(8x)----------------------------------------------| 
G|---5--(16x)--3--(8x)--3----------------------------------------------------| 
C|---5---------3-------------------------------------------------------------| 

Clean verse  

D|---------------------------------------------------------------------------| 
A|---3--3--3--1--5---1-----------4---6---------------------------------------------| 
F|---------4-------------(2x)----------------------------------------------------| 
C|---5--5-----3------3-----------1---2--------------------------------------------| 
G|---------------3------------------------------------------------------------| 
C|---------------------------------------------------------------------------| 


Chorus (lead) play 2x 
  
D|---15------15------15------15------15------15------13------13-------13-----| 
A|-------15------15------15------15------15------15------15-------15-------15| 
F|---------------------------------------------------------------------------| 
C|---------------------------------------------------------------------------| 
G|---------------------------------------------------------------------------| 
C|---------------------------------------------------------------------------| 

D|---12------12-------13-----------------------------------------------------| 
A|-------15------15-------15-------------------------------------------------| 
F|---------------------------------------------------------------------------| 
C|---------------------------------------------------------------------------| 
G|---------------------------------------------------------------------------| 
C|---------------------------------------------------------------------------| 

Chorus (rhythm) play 2x 

D|---------------------------------------------------------------------------| 
A|---------------------------------------------------------------------------| 
F|----------------------5----------------------------------------------------| 
C|---5---------3--------5--(8x)----------------------------------------------| 
G|---5--(16x)--3--(8x)--3----------------------------------------------------| 
C|---5---------3-------------------------------------------------------------| 

 verse 2 

Chorus 

Bridge P1 (lead) (tremelo picking optional) 

D|---15------15--13------13--12-----12--12-------13--15----------------------| 
A|-------15----------15----------13----------13------------------------------| 
F|---------------------------------------------------------------------------| 
C|---------------------------------------------------------------------------| 
G|---------------------------------------------------------------------------| 
C|---------------------------------------------------------------------------| 

Bridge P1(rhythm) play 2x 

D|---------------------------------------------------------------------------| 
A|---------------------------------------------------------------------------| 
F|----------------------5----------------------------------------------------| 
C|---5---------3--------5--(16x)---5-----------------------------------------| 
G|---5--(8x)-- 3--(8x)--3----------5-----------------------------------------| 
C|---5---------3-------------------5-----------------------------------------| 

Bridge P2(lead, clean)  

D|---------------------------------------------------------------------------| 
A|---3-----------------------3------1------5---------------------------------| 
F|------4--(2x)-----------------4------2------(4x)---------------------------| 
C|---5--5--------------------5--5---3--3-------------------------------------| 
G|-----------------------------------------3---------------------------------| 
C|---------------------------------------------------------------------------| 

Bridge P2 (Rhythm) 

D|---------------------------------------------------------------------------| 
A|----------------------------------------------------last time--------------| 
F|----------------------------------5555----------------------------5--------| 
C|---5555--3333--(2x)--5555--3333---5555--(1x)---5---------3--------5--(8x)--| 
G|---5555--3333--------5555--3333---3333---------5--(16x)--3--(8x)--3--------| 
C|---5555--3333--------5555--3333----------------5---------3-----------------| 

Last Chorus (Lead) 

D|-------13------13-------13------12-------12--------13----------------------------| 
A|-----------15-------15------15------15--------15-------15------------------------| 
F|---------------------------------------------------------------------------| 
C|---------------------------------------------------------------------------| 
G|---------------------------------------------------------------------------| 
C|---------------------------------------------------------------------------| 
  
D|---15------15------15------15------15------15------13------13-------13-----| 
A|-------15------15------15------15------15------15------15-------15-------15| 
F|---------------------------------------------------------------------------| 
C|---------------------------------------------------------------------------| 
G|---------------------------------------------------------------------------| 
C|---------------------------------------------------------------------------| 

D|---12------12-------13-----------------------------------------------------| 
A|-------15------15-------15-------------------------------------------------| 
F|---------------------------------------------------------------------------| 
C|---------------------------------------------------------------------------| 
G|---------------------------------------------------------------------------| 
C|---------------------------------------------------------------------------| 


last Chorus (Rhythm) 



D|---------------------------------------------------------------------------| 
A|---------------------------------------------------------------------------| 
F|-------------5---------------------------5---------------------------------| 
C|-----3-------5--(8x)--5---------3--------5--(8x)---------------------------| 
G|-----3-(8x)--3--------5--(16x)--3--(8x)--3---------------------------------| 
C|-----3----------------5---------3------------------------------------------| 

Bridge P1 

End  
  

top 5 | tonight alive
top rock alternativo
Outras músicas do artista letras do(a) Tonight Alive
Top cifras »Top artistas »
Petaxxon Comunicação Online
Cifras.com.br - Melhor e mais completo site de cifras e tablaturas do Brasil
Mais de 1 milhão de acordes de músicas cadastradas desde 2003
As informações contidas no nosso site são colaborações de seus usuários e podem conter erros, sendo assim, não nos responsabilizamos sobre nenhuma destas.
close
menos
mais
close
Cor dos acordes:

Cor da letra:

 

save
close
close
 
redimensionar