Cifras e Tablaturas
Tori Kelly

Tori Kelly

Blink Of An Eye Original

Cifras Cancelar Versão de Impressão
cifras

Tori Kelly - Blink Of An Eye Original

fixar na tela  
Exibindo: vídeo-aula ver clipes redimensionar

Tom:

  Intro 

e|-----------------------|-----------------------|-----------------------|-----------------------| 
B|--1-----1-----1-----1--|--0-----0-----0-----0--|--1-----1-----1-----1--|--1-----1-----1-----1--| 
G|--0-----0-----0-----0--|--0-----0-----0-----0--|--0-----0-----0-----0--|--0-----0-----0-----0--| 
D|-----------------------|-----------------------|-----------------------|-----------------------| 
A|--3--3-----3-----3-----|--3--3-----3-----3-----|--0--0-----0-----0-----|-----------------------| 
E|-----------------------|-----------------------|-----------------------|--1--1-----1-----1-----| 


Verse 

e|-----------------------|-----------------------|-----------------------|-----------------------| 
B|--1-----1-----1-----1--|--0-----0-----0-----0--|--1-----1-----1-----1--|--1-----1-----1-----1--| 
G|--0-----0-----0-----0--|--0-----0-----0-----0--|--0-----0-----0-----0--|--0-----0-----0-----0--| 
D|-----------------------|-----------------------|-----------------------|-----------------------| 
A|--3--3-----3-----3-----|--3--3-----3-----3-----|--0--0-----0-----0-----|-----------------------| 
E|-----------------------|-----------------------|-----------------------|--1--1-----1-----1-----| 2x 
It’s 2am, I can’t believe you’re gone 
Isn’t it strange how 
One life ends, but the clocks upon the wall 
They keep ticking on and on and on 

e|-----------------------|-----------------------|-----------------------|-----------------------| 
B|--1-----1-----1-----1--|--0-----0-----0-----0--|--1-----1-----1-----1--|--1-----1-----1-----1--| 
G|--0-----0-----0-----0--|--0-----0-----0-----0--|--0-----0-----0-----0--|--0-----0-----0-----0--| 
D|-----------------------|-----------------------|-----------------------|-----------------------| 
A|--3--3-----3-----3-----|--3--3-----3-----3-----|--0--0-----0-----0-----|-----------------------| 
E|-----------------------|-----------------------|-----------------------|--1--1-----1-----1-----| 2x 
What were your last words? 
Happened so fast, Lord 
Can’t help but think what you would be 
If you just had the chance to turn 23 
It’s 2am, still don’t believe you’re gone 
And the world keeps spinning on 


Chorus 

e|-----------------------|-----------------------|--------------------------------------------| 
B|--1-----1-----1-----1--|--0-----0-----0-----0--|--1-----1--3-----3--|--1-----1-----1-----1--| 
G|--0-----0-----0-----0--|--0-----0-----0-----0--|--0-----0--0-----0--|--2-----2-----2-----2--| 
D|-----------------------|-----------------------|--------------------|-----------------------| 
A|--3--3-----3-----3-----|-----------------------|--0--0--------------|-----------------------| 
E|-----------------------|--0--0-----0-----0-----|-----------3--3-----|--1--1-----1-----1-----| 2x 
You had so many songs left to sing 
So many stories that I’ll never get to read 
Heaven holds you in its arms 
And now I’m down here learning how to say goodbye 
In the blink of an eye 

e|-----------------------|-----------------------| 
B|--1-----1-----1-----1--|--0-----0-----0-----0--| 
G|--0-----0-----0-----0--|--0-----0-----0-----0--| 
D|-----------------------|-----------------------| 
A|--3--3-----3-----3-----|--3--3-----3-----3-----| 
E|-----------------------|-----------------------| 


verse 2 

e|-----------------------|-----------------------|-----------------------|-----------------------| 
B|--1-----1-----1-----1--|--0-----0-----0-----0--|--1-----1-----1-----1--|--1-----1-----1-----1--| 
G|--0-----0-----0-----0--|--0-----0-----0-----0--|--0-----0-----0-----0--|--0-----0-----0-----0--| 
D|-----------------------|-----------------------|-----------------------|-----------------------| 
A|--3--3-----3-----3-----|--3--3-----3-----3-----|--0--0-----0-----0-----|-----------------------| 
E|-----------------------|-----------------------|-----------------------|--1--1-----1-----1-----| 2x 
It’s hard to think with all these extra noise 
They’re talking so loud 
But you’re quiet now while your melody plays on 
And I’ll just sing along, along, along 

e|-----------------------|-----------------------|-----------------------|-----------------------| 
B|--1-----1-----1-----1--|--0-----0-----0-----0--|--1-----1-----1-----1--|--1-----1-----1-----1--| 
G|--0-----0-----0-----0--|--0-----0-----0-----0--|--0-----0-----0-----0--|--0-----0-----0-----0--| 
D|-----------------------|-----------------------|-----------------------|-----------------------| 
A|--3--3-----3-----3-----|--3--3-----3-----3-----|--0--0-----0-----0-----|-----------------------| 
E|-----------------------|-----------------------|-----------------------|--1--1-----1-----1-----| 2x 
When you took your last breath 
You had so much life left 
Can’t help but think it could have been me out there 
Chasing a dream when suddenly it all stops.... 
In a heartbeat 


Chorus 

e|-----------------------|-----------------------|--------------------------------------------| 
B|--1-----1-----1-----1--|--0-----0-----0-----0--|--1-----1--3-----3--|--1-----1-----1-----1--| 
G|--0-----0-----0-----0--|--0-----0-----0-----0--|--0-----0--0-----0--|--2-----2-----2-----2--| 
D|-----------------------|-----------------------|--------------------|-----------------------| 
A|--3--3-----3-----3-----|-----------------------|--0--0--------------|-----------------------| 
E|-----------------------|--0--0-----0-----0-----|-----------3--3-----|--1--1-----1-----1-----|  
There’s so many songs left to sing 
So many stories that I’ll never get to read 

e|-----------------------|-----------------------|--------------------|-----| 
B|--1-----1-----1-----1--|--0-----0-----0-----0--|--1-----1--3-----3--|--1--| 
G|--0-----0-----0-----0--|--0-----0-----0-----0--|--0-----0--0-----0--|--2--| 
D|-----------------------|-----------------------|--------------------|-----| 
A|--3--3-----3-----3-----|-----------------------|--0--0--------------|-----| 
E|-----------------------|--0--0-----0-----0-----|-----------3--3-----|--1--| 
And heaven holds you in it’s arms 
And now, I’m down here learning how to say goodbye 
In the blink of an eye 


Outro 

e|-----------------------|-----------------------|-----------------------|-----------------------| 
B|--1-----1-----1-----1--|--0-----0-----0-----0--|--1-----1-----1-----1--|--1-----1-----1-----1--| 
G|--0-----0-----0-----0--|--0-----0-----0-----0--|--0-----0-----0-----0--|--0-----0-----0-----0--| 
D|-----------------------|-----------------------|-----------------------|-----------------------| 
A|--3--3-----3-----3-----|--3--3-----3-----3-----|--0--0-----0-----0-----|-----------------------| 
E|-----------------------|-----------------------|-----------------------|--1--1-----1-----1-----| 
In the blink of an eye 

e|-----------------------|-----------------------|--------------------|-----| 
B|--1-----1-----1-----1--|--0-----0-----0-----0--|--1-----1--3-----3--|--1--| 
G|--0-----0-----0-----0--|--0-----0-----0-----0--|--0-----0--0-----0--|--2--| 
D|-----------------------|-----------------------|--------------------|-----| 
A|--3--3-----3-----3-----|--3--3-----3-----3-----|--0--0--------------|-----| 
E|-----------------------|-----------------------|-----------3--3-----|--1--| 
  

top 5 | tori kelly
top pop music
Outras músicas do artista letras do(a) Tori Kelly
Top cifras »Top artistas »
Petaxxon Comunicação Online
Cifras.com.br - Melhor e mais completo site de cifras e tablaturas do Brasil
Mais de 1 milhão de acordes de músicas cadastradas desde 2003
As informações contidas no nosso site são colaborações de seus usuários e podem conter erros, sendo assim, não nos responsabilizamos sobre nenhuma destas.
close
menos
mais
close
Cor dos acordes:

Cor da letra:

 

save
close
close
 
redimensionar