Cifras e Tablaturas
Tori Kelly

Tori Kelly

Personal

Cifras Cancelar Versão de Impressão
cifras

Tori Kelly - Personal

fixar na tela  
Exibindo: vídeo-aula ver clipes redimensionar

Tom:

  ------------------------------------------------------------------------------- 
                 Personal - Tori Kelly 
------------------------------------------------------------------------------- 
Tuning: EADGBe 

Intro: 
e|--------------------|--------------------|--------------------|--------------------| 
B|--------------------|--------------------|--------------------|--------------------| 
G|--------------5--5--|--------------5--5--|--------------5--5--|--------------5--5--| 
D|--------------5--5--|--------------5--5--|--------------5--5--|--------------5--5--| 
A|--------------------|--------------------|--------------------|--------------------| 
E|---0---3---5-----5--|---0---3---5-----5--|---0---3---5-----5--|---0---3---5-----5--| 


verse 1: 
e|-------------------------------|-------|-----------------------| 
B|-------------------------------|-------|-----------------------| 
G|------5--5--------------5--5---|---4---|------2--2------2--2---| 
D|------5--5--------------5--5---|---5---|------3--3------3--3---| 
A|-------------------------------|-------|-----------------------| 
E|---5-----5---0---3---5-----5---|---3---|---1-----1---1-----1---| 
What am I gonna do with this heart 
Catching all these bad arrows and darts? 

e|-----------------------------|--------------------------------------| 
B|-----------------------------|--------------------------------------| 
G|-------10--10-------12--12---|-------------5--5--------------5--5---| 
D|-------10--10-------12--12---|-------------5--5--------------5--5---| 
A|-----------------------------|--------------------------------------| 
E|---10------10---12------12---|---0---3--5-----5---0---3---5-----5---| 
I don't wanna be lonely, but I know what I want 


verse 2: 
e|-------------------------------|-------|-----------------------| 
B|-------------------------------|-------|-----------------------| 
G|------5--5--------------5--5---|---4---|------2--2------2--2---| 
D|------5--5--------------5--5---|---5---|------3--3------3--3---| 
A|-------------------------------|-------|-----------------------| 
E|---5-----5---0---3---5-----5---|---3---|---1-----1---1-----1---| 
Maybe this train has run out of steam 
'Cause there's nothin' but nothin' between you and me 

e|-----------------------------|--------------------|-------| 
B|-----------------------------|--------------------|---0---| 
G|-------10--10-------12--12---|-------------5--5---|---1---| 
D|-------10--10-------12--12---|-------------5--5---|---2---| 
A|-----------------------------|--------------------|---2---| 
E|---10------10---12------12---|---0---3--5-----5---|---0---| 
I don't wanna leave you lonely, but I know what I want 
And it ain't you no more 


Chorus: 
e|---------------|-------------|-------------|--------------| 
B|---------------|-------------|-------------|--------------| 
G|------9---9----|------4--4---|------5--5---|------2--2----| 
D|------10--10---|------5--5---|------5--5---|------3--3----| 
A|---------------|-------------|-------------|--------------| 
E|---8------8----|---3-----3---|---5-----5---|---1------1---| 
Spent my whole life looking for the one I could call 
Wasted all my time on you tryna make this beautiful 

e|---------------|-------------|--------------|-------| 
B|---------------|-------------|--------------|---0---| 
G|------9---9----|------4--4---|------2--2----|---1---| 
D|------10--10---|------5--5---|------3--3----|---2---| 
A|---------------|-------------|--------------|---2---| 
E|---8------8----|---3-----3---|---1------1---|---0---| 
But it's clear to see you don't love me at all 
Baby, go ahead and say it 
I won't take it personal 

e|--------------------|------------------------------------| 
B|--------------------|------------------------------------| 
G|--------------5--5--|--------------5-----5-----5-----5---| 
D|--------------5--5--|--------------5-----5-----5-----5---| 
A|--------------------|------------------------------------| 
E|---0---3---5-----5--|---0---3---5-----3-----3-----3------| 


verse 3: 
e|-------------------------------|-------|-----------------------| 
B|-------------------------------|-------|-----------------------| 
G|------5--5--------------5--5---|---4---|------2--2------2--2---| 
D|------5--5--------------5--5---|---5---|------3--3------3--3---| 
A|-------------------------------|-------|-----------------------| 
E|---5-----5---0---3---5-----5---|---3---|---1-----1---1-----1---| 
If you don't stop to count your blessings 
One day, you'll wake up and find them missing 

e|-----------------------------|--------------------------------------| 
B|-----------------------------|--------------------------------------| 
G|-------10--10-------12--12---|-------------5--5--------------5--5---| 
D|-------10--10-------12--12---|-------------5--5--------------5--5---| 
A|-----------------------------|--------------------------------------| 
E|---10------10---12------12---|---0---3--5-----5---0---3---5-----5---| 
I don't wanna see you lonely 
But you've gotta know what you want 


verse 4: 
e|-------------------------------|-------|-----------------------| 
B|-------------------------------|-------|-----------------------| 
G|------5--5--------------5--5---|---4---|------2--2------2--2---| 
D|------5--5--------------5--5---|---5---|------3--3------3--3---| 
A|-------------------------------|-------|-----------------------| 
E|---5-----5---0---3---5-----5---|---3---|---1-----1---1-----1---| 
If you wanted love that's only pretend 
Baby, you should of bought a Barbie and Ken 

e|-----------------------------|--------------------|-------| 
B|-----------------------------|--------------------|---0---| 
G|-------10--10-------12--12---|-------------5--5---|---1---| 
D|-------10--10-------12--12---|-------------5--5---|---2---| 
A|-----------------------------|--------------------|---2---| 
E|---10------10---12------12---|---0---3--5-----5---|---0---| 
Well, my heart's not a toy to play with 
Now I know what I want 
And it ain't you no more 


Chorus: 
e|---------------|-------------|-------------|--------------| 
B|---------------|-------------|-------------|--------------| 
G|------9---9----|------4--4---|------5--5---|------2--2----| 
D|------10--10---|------5--5---|------5--5---|------3--3----| 
A|---------------|-------------|-------------|--------------| 
E|---8------8----|---3-----3---|---5-----5---|---1------1---| 
Spent my whole life looking for the one I could call 
Wasted all my time on you tryna make this beautiful 

e|---------------|-------------|--------------|-------| 
B|---------------|-------------|--------------|---0---| 
G|------9---9----|------4--4---|------2--2----|---1---| 
D|------10--10---|------5--5---|------3--3----|---2---| 
A|---------------|-------------|--------------|---2---| 
E|---8------8----|---3-----3---|---1------1---|---0---| 
But it's clear to see you don't love me at all 
Baby, go ahead and say it 
I won't take it personal 

e|--------------------|------------------------------------| 
B|--------------------|------------------------------------| 
G|--------------5--5--|--------------5-----5-----5-----5---| 
D|--------------5--5--|--------------5-----5-----5-----5---| 
A|--------------------|------------------------------------| 
E|---0---3---5-----5--|---0---3---5-----3-----3-----3------| 
Ohh, yeah, yeah 


Bridge: 
e|-------------------------------|-------|-----------------------| 
B|-------------------------------|-------|-----------------------| 
G|------5--5--------------5--5---|---4---|------2--2------2--2---| 
D|------5--5--------------5--5---|---5---|------3--3------3--3---| 
A|-------------------------------|-------|-----------------------| 
E|---5-----5---0---3---5-----5---|---3---|---1-----1---1-----1---| 
But then again, maybe I will 
Did we do it all for the thrill? 
Or does part of you love me still? 
No, scratch that say goodbye 
Seal the deal 

e|-----------------------------|--------------------------------------| 
B|-----------------------------|--------------------------------------| 
G|-------10--10-------12--12---|-------------5--5--------------5--5---| 
D|-------10--10-------12--12---|-------------5--5--------------5--5---| 
A|-----------------------------|--------------------------------------| 
E|---10------10---12------12---|---0---3--5-----5---0---3---5-----5---| 
Real is what you want now don't ya 
But I'm not the one now for ya 
This was already over before it began 
So walk away; be a man 


Chorus: 
e|---------------|-------------|-------------|--------------| 
B|---------------|-------------|-------------|--------------| 
G|------9---9----|------4--4---|------5--5---|------2--2----| 
D|------10--10---|------5--5---|------5--5---|------3--3----| 
A|---------------|-------------|-------------|--------------| 
E|---8------8----|---3-----3---|---5-----5---|---1------1---| 
Spent my whole life looking for the one I could call 
Wasted all my time on you tryna make this beautiful 

e|---------------|-------------|--------------|-------| 
B|---------------|-------------|--------------|---0---| 
G|------9---9----|------4--4---|------2--2----|---1---| 
D|------10--10---|------5--5---|------3--3----|---2---| 
A|---------------|-------------|--------------|---2---| 
E|---8------8----|---3-----3---|---1------1---|---0---| 
But it's clear to see you don't love me at all 
Baby, go ahead and say it 
I won't take it personal 

e|--------------------|------------------------------------| 
B|--------------------|------------------------------------| 
G|--------------5--5--|--------------5-----5-----5-----5---| 
D|--------------5--5--|--------------5-----5-----5-----5---| 
A|--------------------|------------------------------------| 
E|---0---3---5-----5--|---0---3---5-----3-----3-----3------| 

Chorus: 
e|---------------|-------------|-------------|--------------| 
B|---------------|-------------|-------------|--------------| 
G|------9---9----|------4--4---|------5--5---|------2--2----| 
D|------10--10---|------5--5---|------5--5---|------3--3----| 
A|---------------|-------------|-------------|--------------| 
E|---8------8----|---3-----3---|---5-----5---|---1------1---| 
Spent my whole life looking for the one I could call 
Wasted all my time on you tryna make this beautiful 

e|---------------|-------------|--------------|-------| 
B|---------------|-------------|--------------|---0---| 
G|------9---9----|------4--4---|------2--2----|---1---| 
D|------10--10---|------5--5---|------3--3----|---2---| 
A|---------------|-------------|--------------|---2---| 
E|---8------8----|---3-----3---|---1------1---|---0---| 
But it's clear to see you don't love me at all 
Baby, go ahead and say it 
I won't take it personal 

e|--------------------|------------------------------------| 
B|--------------------|------------------------------------| 
G|--------------5--5--|--------------5-----5-----5-----5---| 
D|--------------5--5--|--------------5-----5-----5-----5---| 
A|--------------------|------------------------------------| 
E|---0---3---5-----5--|---0---3---5-----3-----3-----3------| 


Outro: 
e|--------------------|--------------------|--------------------|--------------------| 
B|--------------------|--------------------|--------------------|--------------------| 
G|--------------5--5--|--------------5--5--|--------------5--5--|--------------5--5--| 
D|--------------5--5--|--------------5--5--|--------------5--5--|--------------5--5--| 
A|--------------------|--------------------|--------------------|--------------------| 
E|---0---3---5-----5--|---0---3---5-----5--|---0---3---5-----5--|---0---3---5-----5--| 
Ooh, yeah, yeah 

e|-------------------------------|-------|-----------------------| 
B|-------------------------------|-------|-----------------------| 
G|------5--5--------------5--5---|---4---|------2--2------2--2---| 
D|------5--5--------------5--5---|---5---|------3--3------3--3---| 
A|-------------------------------|-------|-----------------------| 
E|---5-----5-----------5-----5---|---3---|---1-----1---1-----1---| 
What am I gonna do with this heart 
Catching all these bad arrows and darts? 

e|-----------------------------|---0---| 
B|-----------------------------|---5---| 
G|-------10--10-----------12---|---5---| 
D|-------10--10-----------12---|---5---| 
A|-----------------------------|-------| 
E|---10------10-----------12---|---5---| 
I don't wanna be lonely, but I know what I want 

************************************ 
  

top 5 | tori kelly
top pop music
Outras músicas do artista letras do(a) Tori Kelly
Top cifras »Top artistas »
Petaxxon Comunicação Online
Cifras.com.br - Melhor e mais completo site de cifras e tablaturas do Brasil
Mais de 1 milhão de acordes de músicas cadastradas desde 2003
As informações contidas no nosso site são colaborações de seus usuários e podem conter erros, sendo assim, não nos responsabilizamos sobre nenhuma destas.
close
menos
mais
close
Cor dos acordes:

Cor da letra:

 

save
close
close
 
redimensionar