Cifras e Tablaturas
Tori Kelly

Tori Kelly

Where I Belong

Cifras Cancelar Versão de Impressão
cifras

Tori Kelly - Where I Belong

fixar na tela  
Exibindo: vídeo-aula ver clipes redimensionar
   
Capo 2

e|-------|-------|-------|----|-------|-------|-------| 
B|---1---|---3---|---1---|----|---1---|---3---|---1---| 
G|---0---|---3---|---2---|----|---0---|---3---|---2---| 
D|---2---|---3---|---3---|----|---2---|---5---|---3---| 
A|---3---|---1---|-------|----|---3---|---3---|-------| 
E|-------|-------|---1---|----|-------|-------|---1---| 
I'm just a girl with her guitar 
Trying to give you my whole heart 


e|-------|-------|-------|----|-------|-------|--------7------|---0---| 
B|---1---|---3---|---1---|----|---1---|---1---|-----5-----5---|---1---| 
G|---0---|---3---|---2---|----|---2---|---1---|---------------|---2---| 
D|---2---|---3---|---3---|----|---3---|---3---|---------------|---2---| 
A|---3---|---1---|-------|----|-------|-------|---------------|---0---| 
E|-------|-------|---1---|----|---1---|---1---|---7-----------|-------| 
If there's anybody out there listening to me 
All I have is a story and a dream 


e|-------|-------|-------| 
B|---1---|---1---|---1---| 
G|---2---|---1---|---0---| 
D|---3---|---3---|---2---| 
A|-------|-------|---3---| 
E|---1---|---1---|-------| 
So here I am, this is all I can be 


e|---3--3--3--3---|---0--0--0--0---|---1--1--1--1---|---1--1--1--1---| 
B|---3--3--3--3---|---1--1--1--1---|---1--1--1--1---|---1--1--1--1---| 
G|---0--0--0--0---|---0--0--0--0---|---2--2--2--2---|---2--2--2--2---| 
D|---0--0--0--0---|---2--2--2--2---|---3--3--3--3---|---3--3--3--3---| 
A|---2--2--2--2---|---3--3--3--3---|---3--3--3--3---|---3--3--3--3---| 
E|---3--3--3--3---|---3--3--3--3---|---1--1--1--1---|---1--1--1--1---| 3x 
I know I forget to breathe sometimes 
I'm so afraid to fall behind 
Why do I let the pressure take over my mind 

e|---1--1--1--1---|---0--0--0--0--|---0--0--0--0---|---2---| 
B|---1--1--1--1---|---0--0--0--0--|---1--1--1--1---|---3---| 
G|---2--2--2--2---|---1--1--1--1--|---2--2--2--2---|---2---| 
D|---3--3--3--3---|---2--2--2--2--|---2--2--2--2---|---0---| 
A|---3--3--3--3---|---2--2--2--2--|---0--0--0--0---|-------| 
E|---1--1--1--1---|---0--0--0--0--|----------------|-------| 
When I know the truth is never wrong 

e|---1---|---1---|---0---|-------| 
B|---1---|---1---|---1---|---8---| 
G|---2---|---1---|---0---|---9---| 
D|---3---|---3---|---2---|---9---| 
A|---3---|---3---|---3---|---7---| 
E|---1---|---1---|---3---|-------| 
I'm alright, this is right where I belong 

************************************ 
  

top 5 | tori kelly
top pop music
Outras músicas do artista letras do(a) Tori Kelly
Top cifras »Top artistas »
Petaxxon Comunicação Online
Cifras.com.br - Melhor e mais completo site de cifras e tablaturas do Brasil
Mais de 1 milhão de acordes de músicas cadastradas desde 2003
As informações contidas no nosso site são colaborações de seus usuários e podem conter erros, sendo assim, não nos responsabilizamos sobre nenhuma destas.
close
menos
mais
close
Cor dos acordes:

Cor da letra:

 

save
close
close
 
redimensionar