Cifras e Tablaturas
Toshiro Masuda

Toshiro Masuda

Opening 4 Closer

Cifras Cancelar Versão de Impressão Print

Toshiro Masuda - Opening 4 Closer

Tom:

  • 0:00 / 0:00
  			
e|-----------------------|--------------------------|-------------------------| 
B|-------------------2-2-|-----3-----0-----------0--|----------------0-----2--| 
G|--2------------2-4-----|-----------------2--------|-------------2-----------| 
D|--2--------------------|--------------------------|----------2--------------| 
A|--0--------------------|--------------------------|-------------------------| 
D|-----------------------|--0-----0-----0-----0-----|--2----2-----2-----2-----| 

e|--------------------------|------------------------|--------------------------| 
B|-----3-----2-----0-----0--|---------------------2--|-----3-----0-----------2--| 
G|--------------------------|-----2------------2-----|-----------------2--------| 
D|--------------------------|------------------------|--------------------------| 
A|--0-----0-----0-----0-----|------------------------|--------------------------| 
D|--------------------------|--4-----4----4----4-----|--0-----0-----0-----0-----| 

e|------------------------|-----------0--------------|------------0--5--4--0--| 
B|--------0------------2--|-----3--------------------|------------------------| 
G|-----2------------2-----|--------------------------|------------------------| 
D|------------------------|-----------------7-----7--|--6----7----------------| 
A|------------------------|--0-----0-----0-----0-----|------------------------| 
D|--2-----2----2----2-----|--------------------------|--4----4----------------| 

e|-------------0--5--4--0--|-------------0--5--4--0--|-------------0--5--4--0--| 
B|-------------------------|-------------------------|-------------------------| 
G|--2-----2----------------|--2-----2----------------|--2-----2----------------| 
D|-----2-------------------|-----2-------------------|-----2-------------------| 
A|-------------------------|-------------------------|--0----------------------| 
D|--0----------------------|--2----------------------|-------------------------| 

e|------------------------|-------------------------|-------------------------| 
B|------------------------|----------------0--2--2--|-----0-------------------| 
G|--2-----2---------------|-------------2-----------|-----------2-----1-------| 
D|-----2------------------|----------2--------------|-------------------------| 
A|--0-------------0-------|--0--0-------------------|-------------------------| 
D|-------------2-------2--|-------------------------|--2-----2-----2-----2----| 

e|-------------------------|-------------------------|---------------------------| 
B|-------------------------|-------------------------|---------------------------| 
G|--2-------------1--2--2--|-----1-------------------|---------------------------| 
D|-------------4-----------|-----------4-----2-------|--4------------------------| 
A|----------4--------------|-------------------------|-----------7--9p--7--5--7--| 
D|--4--4-------------------|--2-----2-----2-----2----|--0--0--x------------------| 

e|-------------------------|-------------------------|-------------------------| 
B|-------------------------|-------------------------|-----------------0-------| 
G|-------------------------|----------------1--2--2--|-----1-----2-------------| 
D|-----------0-----2-------|--4-------2--4-----------|-------------------------| 
A|-----4--------0-----0----|--2--2-------------------|-------------------------| 
D|--7-----7----------------|-------------------------|--2-----2-----2-----2----| 

e|-------------------------|-----------0-------------|-------------------------| 
B|--2-------------0--2--2--|-----0-------------------|-------------------------| 
G|-------------2-----------|-----------------1-------|--2-------------1--2--2--| 
D|----------2--------------|-------------------------|-------------4-----------| 
A|--0--0-------------------|-------------------------|----------4--------------| 
D|-------------------------|--2-----2-----2-----2----|--4--4-------------------| 

e|-------------------------|---------------------------|-------------------------| 
B|-----------2-------------|---------------------------|-------------------------| 
G|-----1-------------------|---------------------------|-------------------------| 
D|-----------------2-------|--4------------------------|-----------0-----2-------| 
A|-------------------------|-----------7--9p--7--5--7--|-----4--------0-----0----| 
D|--2-----2-----2-----2----|--0--0--x------------------|--7-----7----------------| 

e|------------------------|--------------------------| 
B|------------------------|-----------------0--2--2--| 
G|----------------2----2--|--L--4--4-----2-----------| 
D|--4-------2--4----------|-----------2--------------| 
A|--2--2----------2-------|--------------------------| 
D|---------------------2--|--L--2--2-----------------| 

e|---------------------------|-------------------------| 
B|------3-----0-----------0--|----------------0-----2--| 
G|*-----4-----1-----2-----1--|-------------2-----------| 
D|*-----------------4--------|----------2--------------| 
A|---------------------------|-------------------------| 
D|---0-----0-----0-----0-----|--2----2-----2-----2-----| 

e|--------------------------|-----------------------|--------------------------| 
B|-----3-----2-----0--------|--------------------2--|-----3-----0-----------2--| 
G|-----4-----2-----1-----2--|-----------------2-----|-----4-----1-----2--------| 
D|-----------------------4--|-----------------------|-----------------4--------| 
A|--0-----0-----0-----0-----|-----------------------|--------------------------| 
D|--------------------------|--4----4----4----4-----|--0-----0-----0-----0-----| 

e|------------------------|-----------0------------|-------------------------| 
B|--------0------------2--|-----3-----2------------|----------------0--2--2--| 
G|-----2------------2-----|-----4-----------2------|-------------2-----------| 
D|------------------------|-----------------4------|--/6----7----------------| 
A|------------------------|--0-----0-----0---------|---4----4----------------| 
D|--2-----2----2----2-----|------------------------|---4----4----------------| 

e|--------------------------|-----------------------|--------------------------| 
B|-----3-----0-----------0--|--------------------2--|-----3-----2-----0--------| 
G|-----4-----1-----2-----1--|-----------------------|-----4-----2-----1-----2--| 
D|-----------------2--------|-----------------2-----|-----------------------4--| 
A|--------------------------|-----------------------|--0-----0-----0-----0-----| 
D|--0-----0-----0-----0-----|--2----2----2----2-----|--------------------------| 

e|------------------------|--------------------------|--------------------------|| 
B|---------------0-----2--|-----3-----0-----------0--|----------------0--2--2---|| 
G|------------2-----------|-----4-----1-----2-----2--|-------------2-----------*|| 
D|------------4-----------|-----------------4--------|----------2--------------*|| 
A|------------------------|--------------------------|--------------------------|| 
D|--0----0----0-----0-----|--0-----0-----0-----0-----|--2----2-----2------------|| 

e|----------------------|-----------------------|------------------------|| 
B|----------------------|-----------------------|------------------------|| 
G|-----------------1----|--2--------------------|------------------------|| 
D|-----------------2----|--2--------------------|----------------7--x----|| 
A|----------------------|--0----0----0--0--0----|--0--0--0--0-------x----|| 
D|--2----2----2----2----|-----------------------|----------------7--x----|| 
    	

enviado porenviado por: andrsouza
cifra enviadaCorrigida por: sem correções
logo top cifrasComente
ico música do artistaMúsicas deste artista
ico curtiuCurtiu?
ico destaqueDestaque
Petaxxon Comunicação Online

Cifras.com.br - Melhor e mais completo site de cifras e tablaturas do Brasil Mais de 1 milhão de acordes de músicas cadastradas desde 2003
As informações contidas no nosso site são colaborações de seus usuários e podem conter erros, sendo assim, não nos responsabilizamos sobre nenhuma destas.

close
menos
mais
close
Cor dos acordes:

Cor da letra:

close
Alinhar acordes a direita Alinhar acordes a esquerda Alinhar acordes em baixo Alinhar acordes no topo
close
  Mostrar todos os acordes Esconder acordes muito fáceis Esconder acordes fáceis Esconder acordes intermediários
redimensionar
glossário