Cifras e Tablaturas
Trapt

Trapt

Too Close (acoustic)

Cifras Cancelar Versão de Impressão
cifras

Trapt - Too Close (acoustic)

fixar na tela  
Exibindo: vídeo-aula ver clipes redimensionar
  
Intro 

    All notes muted 
D#|---------------------------------|---------------------------------| 
A#|---------------------------------|---------------------------------| 
F#|---------------------------------|---------------------------------| 
C#|---------------------------------|---------------------------------| 
G#|---------------------------------|---------------------------------| 
D#|-1-1-1-1-1-1-1-1-1-1-1-1-1-1-1-1-|-5-5-5-5-5-5-5-5-5-5-5-5-5-5-5-5-| 

D#|---------------------------------|---------------------------------| 
A#|---------------------------------|---------------------------------| 
F#|---------------------------------|---------------------------------| 
C#|---------------------------------|---------------------------------| 
G#|---------------------------------|---------------------------------| 
D#|-0-0-0-0-0-0-0-0-0-0-0-0-0-0-0-0-|-3-3-3-3-3-3-3-3-3-3-3-3-3-3-3-3-| 



Verse 
    Play this throughout most of the song. Muted notes above can be heard repeating as 2nd guitar track 
    
    Emaj7                             G#sus2 
D#|-0-------0-------0---0-------0---|-0-------0-0---------0---0---0---| 
A#|-1-------1-------1---1-------1---|-0-------0-0---------0---0---0---| 
F#|-2-------2-------2---2-------2---|-2-------2-2---------2---2---2---| 
C#|-3-------3-------3---3-------3---|-2-------2-2---------2---2---2---| 
G#|-3-------3-------3---3-------3---|-0-------0-0---------0---0---0---| 
D#|-1-------1-------1---1-------1---|---------------------------------| 

    D#m                               F# 
D#|-0-------0-------0---0-------0---|-3-------3-3---------3---3---3---| 
A#|-0-------0-------0---0-------0---|-3-------3-3---------3---3---3---| 
F#|-0-------0-------0---0-------0---|-0-------0-0---------0---0---0---| 
C#|-2-------2-------2---2-------2---|-0-------0-0---------0---0---0---| 
G#|-2-------2-------2---2-------2---|-x-------x-x---------x---x---x---| 
D#|-0-------0-------0---0-------0---|-3-------3-3---------3---3---3---| 



Bridge 

    (2:06 - 2:30) 
D#|---------------------------------|-------------0--0----------------| 
A#|-------------8---8---------------|-------------0--0--------0-------| 
F#|-------------9---9---------------|-0-----------9--9\7------7-------| 
C#|-7/9---------10--10--------------|-9/10--------------------10\9----| 
G#|-0-----------0---0---------------|-0-------------------------------| 
D#|---------------------------------|---------------------------------| 



Outro 

Resume verse to end song 

************************************ 

| x   Dead note 
| /   Slide up 
| \   Slide down 

************************************ 
  

top 5 | trapt
top numetal
Outras músicas do artista letras do(a) Trapt
3.
Echo
Top cifras »Top artistas »
Petaxxon Comunicação Online
Cifras.com.br - Melhor e mais completo site de cifras e tablaturas do Brasil
Mais de 1 milhão de acordes de músicas cadastradas desde 2003
As informações contidas no nosso site são colaborações de seus usuários e podem conter erros, sendo assim, não nos responsabilizamos sobre nenhuma destas.
close
menos
mais
close
Cor dos acordes:

Cor da letra:

 

save
close
close
 
redimensionar