Cifras e Tablaturas
Trevor Hall

Trevor Hall

Something For You

Cifras Cancelar Versão de Impressão
cifras

Trevor Hall - Something For You

fixar na tela  
Exibindo: vídeo-aula ver clipes redimensionar
  
Intro 

e|---------------------------------------------------------------------------| 
B|-------0-----------------0---------------0------------------0--------------| 
G|---4---------------6---------------7------------------2--------------------| 
D|---------------------------------------------------------------------------| 
A|---------------------------------------------------------------------------| 
E|---3---------------5---------------7------------------2--------------------| 


e|-----------------------------------------0---------------------------------| 
B|-------0-----------------0---------------------------------0---------------| 
G|---4---------------6---------------7------------------2--------------------| 
D|---------------------------------------------------------------------------| 
A|---------------------------------------------------------------------------| 
E|---3---------------5---------------7------------------2--------------------| 


e|---------------------------------------------------------------------------| 
B|-------0-----------------0---------------0------------------0--------------| 
G|---4---------------6---------------7------------------2--------------------| 
D|---------------------------------------------------------------------------| 
A|---------------------------------------------------------------------------| 
E|---3---------------5---------------7------------------2--------------------| 


e|---------------------------------------------------------------------------| 
B|-------0-----------------0---------------0---------------------------------| 
G|---4---------------6---------------7------------------2--------------------| 
D|---------------------------------------------------------------------------| 
A|---------------------------------------------------------------------------| 
E|---3---------------5---------------7------------------2--------------------| 




Verse 

e|---------------------------------------------------------------------------| 
B|---------------------------------------------------------------------------| 
G|-----7------------------------------2--------------------------------------| 
D|---------------------------------------------------------------------------| 
A|---------------------------------------------------------------------------| 
E|-----7------------------------------2--------------------------------------| 
    
         Well I been wondering     thoughts have been thundering 



e|---------------------------------------------------------------------------| 
B|---------------------------------------------------------------------------| 
G|-----4----------------------------------6----------------------------------| 
D|---------------------------------------------------------------------------| 
A|---------------------------------------------------------------------------| 
E|-----3----------------------------------5----------------------------------| 
   
      why you don't come my way          



e|---------------------------------------------------------------------------| 
B|---------------------------------------------------------------------------| 
G|--------------7---------------------------------2--------------------------| 
D|---------------------------------------------------------------------------| 
A|---------------------------------------------------------------------------| 
E|--------------7---------------------------------2--------------------------| 
    
    Well they don't really know of me         but I got some poetry 




e|---------------------------------------------------------------------------| 
B|---------------------------------------------------------------------------| 
G|-----4----------------------------------6----------------------------------| 
D|---------------------------------------------------------------------------| 
A|---------------------------------------------------------------------------| 
E|-----3----------------------------------5----------------------------------| 
   
   so what kinda role you wanna play             



Repeat, repeat... pluck the B and e strings whenever ya want. 
The 5xx6xx in the verse is played as a transition just before going back to the 7xx7xx.  
You can hear it in the youtube link above. 



Chorus 

e|---------------------------------------------------------------------------------------| 
B|------------------------0---------------0-------------------0-----------------------0--| 
G|------------------4-----------------6------------------7----------------------2--------| 
D|---------------------------------------------------------------------------------------| 
A|---------------------------------------------------------------------------------------| 
E|------------------3-----------------5------------------7----------------------2--------| 

    Well I think I got something              I think I got some-something for you  
      


e|---------------------------------------------------------------------------------------| 
B|-------------------------0----------------0-----------------0-----------------------0--| 
G|------------------4-----------------6------------------7----------------------2--------| 
D|---------------------------------------------------------------------------------------| 
A|---------------------------------------------------------------------------------------| 
E|------------------3-----------------5------------------7----------------------2--------| 
  
         I think I got something             I think I got some-something for you        



e|---------------------------------------------------------------------------------------| 
B|-----------------------0------------------------------0----------------------0---------| 
G|------------------6-----------------------------7-----------------------4--------------| 
D|---------------------------------------------------------------------------------------| 
A|---------------------------------------------------------------------------------------| 
E|------------------5-----------------------------7-----------------------3--------------| 
  
    something for you              something for you           something for you 
  

cifra enviadasem correções
enviado porenviada por:renejunior
top 5 | trevor hall
top rock alternativo
Outras músicas do artista letras do(a) Trevor Hall
2.
Dust
Top cifras »Top artistas »
Petaxxon Comunicação Online
Cifras.com.br - Melhor e mais completo site de cifras e tablaturas do Brasil
Mais de 1 milhão de acordes de músicas cadastradas desde 2003
As informações contidas no nosso site são colaborações de seus usuários e podem conter erros, sendo assim, não nos responsabilizamos sobre nenhuma destas.
close
menos
mais
close
Cor dos acordes:

Cor da letra:

 

save
close
close
 
redimensionar